  0
SECTION
  2
HEADER
  9
$ACADVER
  1
AC1018
  9
$ACADMAINTVER
 70
     0
  9
$DWGCODEPAGE
  3
ANSI_1252
  9
$INSBASE
 10
0.0
 20
0.0
 30
0.0
  9
$EXTMIN
 10
1.000000000000000E+20
 20
1.000000000000000E+20
 30
1.000000000000000E+20
  9
$EXTMAX
 10
-1.000000000000000E+20
 20
-1.000000000000000E+20
 30
-1.000000000000000E+20
  9
$LIMMIN
 10
0.0
 20
0.0
  9
$LIMMAX
 10
12.0
 20
9.0
  9
$ORTHOMODE
 70
     0
  9
$REGENMODE
 70
     1
  9
$FILLMODE
 70
     1
  9
$QTEXTMODE
 70
     0
  9
$MIRRTEXT
 70
     1
  9
$LTSCALE
 40
1.0
  9
$ATTMODE
 70
     1
  9
$TEXTSIZE
 40
0.2
  9
$TRACEWID
 40
0.05
  9
$TEXTSTYLE
  7
Standard
  9
$CLAYER
  8
0
  9
$CELTYPE
  6
ByLayer
  9
$CECOLOR
 62
   256
  9
$CELTSCALE
 40
1.0
  9
$DISPSILH
 70
     0
  9
$DIMSCALE
 40
1.0
  9
$DIMASZ
 40
0.18
  9
$DIMEXO
 40
0.0625
  9
$DIMDLI
 40
0.38
  9
$DIMRND
 40
0.0
  9
$DIMDLE
 40
0.0
  9
$DIMEXE
 40
0.18
  9
$DIMTP
 40
0.0
  9
$DIMTM
 40
0.0
  9
$DIMTXT
 40
0.18
  9
$DIMCEN
 40
0.09
  9
$DIMTSZ
 40
0.0
  9
$DIMTOL
 70
     0
  9
$DIMLIM
 70
     0
  9
$DIMTIH
 70
     1
  9
$DIMTOH
 70
     1
  9
$DIMSE1
 70
     0
  9
$DIMSE2
 70
     0
  9
$DIMTAD
 70
     0
  9
$DIMZIN
 70
     0
  9
$DIMBLK
  1

  9
$DIMASO
 70
     1
  9
$DIMSHO
 70
     1
  9
$DIMPOST
  1

  9
$DIMAPOST
  1

  9
$DIMALT
 70
     0
  9
$DIMALTD
 70
     2
  9
$DIMALTF
 40
25.4
  9
$DIMLFAC
 40
1.0
  9
$DIMTOFL
 70
     0
  9
$DIMTVP
 40
0.0
  9
$DIMTIX
 70
     0
  9
$DIMSOXD
 70
     0
  9
$DIMSAH
 70
     0
  9
$DIMBLK1
  1

  9
$DIMBLK2
  1

  9
$DIMSTYLE
  2
Standard
  9
$DIMCLRD
 70
     0
  9
$DIMCLRE
 70
     0
  9
$DIMCLRT
 70
     0
  9
$DIMTFAC
 40
1.0
  9
$DIMGAP
 40
0.09
  9
$DIMJUST
 70
     0
  9
$DIMSD1
 70
     0
  9
$DIMSD2
 70
     0
  9
$DIMTOLJ
 70
     1
  9
$DIMTZIN
 70
     0
  9
$DIMALTZ
 70
     0
  9
$DIMALTTZ
 70
     0
  9
$DIMUPT
 70
     0
  9
$DIMDEC
 70
     4
  9
$DIMTDEC
 70
     4
  9
$DIMALTU
 70
     2
  9
$DIMALTTD
 70
     2
  9
$DIMTXSTY
  7
Standard
  9
$DIMAUNIT
 70
     0
  9
$DIMADEC
 70
     0
  9
$DIMALTRND
 40
0.0
  9
$DIMAZIN
 70
     0
  9
$DIMDSEP
 70
    46
  9
$DIMATFIT
 70
     3
  9
$DIMFRAC
 70
     0
  9
$DIMLDRBLK
  1

  9
$DIMLUNIT
 70
     2
  9
$DIMLWD
 70
    -2
  9
$DIMLWE
 70
    -2
  9
$DIMTMOVE
 70
     0
  9
$LUNITS
 70
     2
  9
$LUPREC
 70
     4
  9
$SKETCHINC
 40
0.1
  9
$FILLETRAD
 40
0.5
  9
$AUNITS
 70
     0
  9
$AUPREC
 70
     0
  9
$MENU
  1
.
  9
$ELEVATION
 40
0.0
  9
$PELEVATION
 40
0.0
  9
$THICKNESS
 40
0.0
  9
$LIMCHECK
 70
     0
  9
$CHAMFERA
 40
0.5
  9
$CHAMFERB
 40
0.5
  9
$CHAMFERC
 40
1.0
  9
$CHAMFERD
 40
0.0
  9
$SKPOLY
 70
     0
  9
$TDCREATE
 40
2456430.503820532
  9
$TDUCREATE
 40
2456430.420487199
  9
$TDUPDATE
 40
2456430.503820544
  9
$TDUUPDATE
 40
2456430.420487211
  9
$TDINDWG
 40
0.0000000116
  9
$TDUSRTIMER
 40
0.0000000116
  9
$USRTIMER
 70
     1
  9
$ANGBASE
 50
0.0
  9
$ANGDIR
 70
     0
  9
$PDMODE
 70
     0
  9
$PDSIZE
 40
0.0
  9
$PLINEWID
 40
0.0
  9
$SPLFRAME
 70
     0
  9
$SPLINETYPE
 70
     6
  9
$SPLINESEGS
 70
     8
  9
$HANDSEED
  5
84
  9
$SURFTAB1
 70
     6
  9
$SURFTAB2
 70
     6
  9
$SURFTYPE
 70
     6
  9
$SURFU
 70
     6
  9
$SURFV
 70
     6
  9
$UCSBASE
  2

  9
$UCSNAME
  2

  9
$UCSORG
 10
0.0
 20
0.0
 30
0.0
  9
$UCSXDIR
 10
1.0
 20
0.0
 30
0.0
  9
$UCSYDIR
 10
0.0
 20
1.0
 30
0.0
  9
$UCSORTHOREF
  2

  9
$UCSORTHOVIEW
 70
     0
  9
$UCSORGTOP
 10
0.0
 20
0.0
 30
0.0
  9
$UCSORGBOTTOM
 10
0.0
 20
0.0
 30
0.0
  9
$UCSORGLEFT
 10
0.0
 20
0.0
 30
0.0
  9
$UCSORGRIGHT
 10
0.0
 20
0.0
 30
0.0
  9
$UCSORGFRONT
 10
0.0
 20
0.0
 30
0.0
  9
$UCSORGBACK
 10
0.0
 20
0.0
 30
0.0
  9
$PUCSBASE
  2

  9
$PUCSNAME
  2

  9
$PUCSORG
 10
0.0
 20
0.0
 30
0.0
  9
$PUCSXDIR
 10
1.0
 20
0.0
 30
0.0
  9
$PUCSYDIR
 10
0.0
 20
1.0
 30
0.0
  9
$PUCSORTHOREF
  2

  9
$PUCSORTHOVIEW
 70
     0
  9
$PUCSORGTOP
 10
0.0
 20
0.0
 30
0.0
  9
$PUCSORGBOTTOM
 10
0.0
 20
0.0
 30
0.0
  9
$PUCSORGLEFT
 10
0.0
 20
0.0
 30
0.0
  9
$PUCSORGRIGHT
 10
0.0
 20
0.0
 30
0.0
  9
$PUCSORGFRONT
 10
0.0
 20
0.0
 30
0.0
  9
$PUCSORGBACK
 10
0.0
 20
0.0
 30
0.0
  9
$USERI1
 70
     0
  9
$USERI2
 70
     0
  9
$USERI3
 70
     0
  9
$USERI4
 70
     0
  9
$USERI5
 70
     0
  9
$USERR1
 40
0.0
  9
$USERR2
 40
0.0
  9
$USERR3
 40
0.0
  9
$USERR4
 40
0.0
  9
$USERR5
 40
0.0
  9
$WORLDVIEW
 70
     1
  9
$SHADEDGE
 70
     3
  9
$SHADEDIF
 70
    70
  9
$TILEMODE
 70
     1
  9
$MAXACTVP
 70
    64
  9
$PINSBASE
 10
0.0
 20
0.0
 30
0.0
  9
$PLIMCHECK
 70
     0
  9
$PEXTMIN
 10
1.000000000000000E+20
 20
1.000000000000000E+20
 30
1.000000000000000E+20
  9
$PEXTMAX
 10
-1.000000000000000E+20
 20
-1.000000000000000E+20
 30
-1.000000000000000E+20
  9
$PLIMMIN
 10
0.0
 20
0.0
  9
$PLIMMAX
 10
12.0
 20
9.0
  9
$UNITMODE
 70
     0
  9
$VISRETAIN
 70
     1
  9
$PLINEGEN
 70
     0
  9
$PSLTSCALE
 70
     1
  9
$TREEDEPTH
 70
  3020
  9
$CMLSTYLE
  2
Standard
  9
$CMLJUST
 70
     0
  9
$CMLSCALE
 40
1.0
  9
$PROXYGRAPHICS
 70
     1
  9
$MEASUREMENT
 70
     0
  9
$CELWEIGHT
370
    -1
  9
$ENDCAPS
280
     0
  9
$JOINSTYLE
280
     0
  9
$LWDISPLAY
290
     0
  9
$INSUNITS
 70
    13
  9
$HYPERLINKBASE
  1

  9
$STYLESHEET
  1

  9
$XEDIT
290
     1
  9
$CEPSNTYPE
380
     0
  9
$PSTYLEMODE
290
     1
  9
$FINGERPRINTGUID
  2
{2EC1BAEA-4097-4042-8396-023DF4EBC421}
  9
$VERSIONGUID
  2
{FAEB1C32-E019-11D5-929B-00C0DF256EC4}
  9
$EXTNAMES
290
     1
  9
$PSVPSCALE
 40
0.0
  9
$OLESTARTUP
290
     0
  9
$SORTENTS
280
   127
  9
$INDEXCTL
280
     0
  9
$HIDETEXT
280
     1
  9
$XCLIPFRAME
290
     0
  9
$HALOGAP
280
     0
  9
$OBSCOLOR
 70
   257
  9
$OBSLTYPE
280
     0
  9
$INTERSECTIONDISPLAY
280
     0
  9
$INTERSECTIONCOLOR
 70
   257
  9
$DIMASSOC
280
     2
  9
$PROJECTNAME
  1

  0
ENDSEC
  0
SECTION
  2
CLASSES
  0
CLASS
  1
ACDBDICTIONARYWDFLT
  2
AcDbDictionaryWithDefault
  3
ObjectDBX Classes
 90
        0
 91
        3
280
     0
281
     0
  0
CLASS
  1
VISUALSTYLE
  2
AcDbVisualStyle
  3
ObjectDBX Classes
 90
     4095
 91
        3
280
     0
281
     0
  0
CLASS
  1
SCALE
  2
AcDbScale
  3
ObjectDBX Classes
 90
     1153
 91
        3
280
     0
281
     0
  0
ENDSEC
  0
SECTION
  2
TABLES
  0
TABLE
  2
VPORT
  5
8
330
0
100
AcDbSymbolTable
 70
     1
  0
VPORT
  5
29
330
8
100
AcDbSymbolTableRecord
100
AcDbViewportTableRecord
  2
*Active
 70
     0
 10
0.0
 20
0.0
 11
1.0
 21
1.0
 12
10.42990654205607
 22
4.5
 13
0.0
 23
0.0
 14
0.5
 24
0.5
 15
0.5
 25
0.5
 16
0.0
 26
0.0
 36
1.0
 17
0.0
 27
0.0
 37
0.0
 40
9.0
 41
1.972972972850329
 42
50.0
 43
0.0
 44
0.0
 50
0.0
 51
0.0
 71
     0
 72
   100
 73
     1
 74
     3
 75
     0
 76
     0
 77
     0
 78
     0
281
     0
 65
     1
110
0.0
120
0.0
130
0.0
111
1.0
121
0.0
131
0.0
112
0.0
122
1.0
132
0.0
 79
     0
146
0.0
  0
ENDTAB
  0
TABLE
  2
LTYPE
  5
5
330
0
100
AcDbSymbolTable
 70
     1
  0
LTYPE
  5
14
330
5
100
AcDbSymbolTableRecord
100
AcDbLinetypeTableRecord
  2
ByBlock
 70
     0
  3

 72
    65
 73
     0
 40
0.0
  0
LTYPE
  5
15
330
5
100
AcDbSymbolTableRecord
100
AcDbLinetypeTableRecord
  2
ByLayer
 70
     0
  3

 72
    65
 73
     0
 40
0.0
  0
LTYPE
  5
16
330
5
100
AcDbSymbolTableRecord
100
AcDbLinetypeTableRecord
  2
Continuous
 70
     0
  3
Solid line
 72
    65
 73
     0
 40
0.0
  0
ENDTAB
  0
TABLE
  2
LAYER
  5
2
330
0
100
AcDbSymbolTable
 70
     3
  0
LAYER
  5
10
330
2
100
AcDbSymbolTableRecord
100
AcDbLayerTableRecord
  2
0
 70
     0
 62
     7
  6
Continuous
370
    -3
390
F
  0
LAYER
  5
5E
330
2
100
AcDbSymbolTableRecord
100
AcDbLayerTableRecord
  2
ohmic
 70
     0
 62
    16
420
  8388608
  6
Continuous
370
    -3
390
F
  0
LAYER
  5
70
330
2
100
AcDbSymbolTableRecord
100
AcDbLayerTableRecord
  2
met1
 70
     0
 62
   136
420
    32896
  6
Continuous
370
    -3
390
F
  0
ENDTAB
  0
TABLE
  2
STYLE
  5
3
330
0
100
AcDbSymbolTable
 70
     1
  0
STYLE
  5
11
330
3
100
AcDbSymbolTableRecord
100
AcDbTextStyleTableRecord
  2
Standard
 70
     0
 40
0.0
 41
1.0
 50
0.0
 71
     0
 42
0.2
  3
txt
  4

  0
ENDTAB
  0
TABLE
  2
VIEW
  5
6
330
0
100
AcDbSymbolTable
 70
     0
  0
ENDTAB
  0
TABLE
  2
UCS
  5
7
330
0
100
AcDbSymbolTable
 70
     0
  0
ENDTAB
  0
TABLE
  2
APPID
  5
9
330
0
100
AcDbSymbolTable
 70
     1
  0
APPID
  5
12
330
9
100
AcDbSymbolTableRecord
100
AcDbRegAppTableRecord
  2
ACAD
 70
     0
  0
ENDTAB
  0
TABLE
  2
DIMSTYLE
  5
A
330
0
100
AcDbSymbolTable
 70
     1
100
AcDbDimStyleTable
  0
DIMSTYLE
105
27
330
A
100
AcDbSymbolTableRecord
100
AcDbDimStyleTableRecord
  2
Standard
 70
     0
340
11
  0
ENDTAB
  0
TABLE
  2
BLOCK_RECORD
  5
1
330
0
100
AcDbSymbolTable
 70
     1
  0
BLOCK_RECORD
  5
1F
330
1
100
AcDbSymbolTableRecord
100
AcDbBlockTableRecord
  2
*Model_Space
340
22
  0
BLOCK_RECORD
  5
1B
330
1
100
AcDbSymbolTableRecord
100
AcDbBlockTableRecord
  2
*Paper_Space
340
1E
  0
BLOCK_RECORD
  5
23
330
1
100
AcDbSymbolTableRecord
100
AcDbBlockTableRecord
  2
*Paper_Space0
340
26
  0
ENDTAB
  0
ENDSEC
  0
SECTION
  2
BLOCKS
  0
BLOCK
  5
20
330
1F
100
AcDbEntity
  8
0
100
AcDbBlockBegin
  2
*Model_Space
 70
     0
 10
0.0
 20
0.0
 30
0.0
  3
*Model_Space
  1

  0
ENDBLK
  5
21
330
1F
100
AcDbEntity
  8
0
100
AcDbBlockEnd
  0
BLOCK
  5
1C
330
1B
100
AcDbEntity
 67
     1
  8
0
100
AcDbBlockBegin
  2
*Paper_Space
 70
     0
 10
0.0
 20
0.0
 30
0.0
  3
*Paper_Space
  1

  0
ENDBLK
  5
1D
330
1B
100
AcDbEntity
 67
     1
  8
0
100
AcDbBlockEnd
  0
BLOCK
  5
24
330
23
100
AcDbEntity
  8
0
100
AcDbBlockBegin
  2
*Paper_Space0
 70
     0
 10
0.0
 20
0.0
 30
0.0
  3
*Paper_Space0
  1

  0
ENDBLK
  5
25
330
23
100
AcDbEntity
  8
0
100
AcDbBlockEnd
  0
ENDSEC
  0
SECTION
  2
ENTITIES
  0
LWPOLYLINE
  5
5D
330
1F
100
AcDbEntity
  8
ohmic
100
AcDbPolyline
 90
        4
 70
     1
 43
0.0
 10
0.0
 20
0.0
 10
0.0
 20
1600.0
 10
2000.0
 20
1600.0
 10
2000.0
 20
0.0
  0
LWPOLYLINE
  5
5F
330
1F
100
AcDbEntity
  8
ohmic
100
AcDbPolyline
 90
       28
 70
     1
 43
0.0
 10
148.3
 20
614.4
 10
149.2
 20
608.5
 10
148.3
 20
602.6
 10
145.6
 20
597.2
 10
141.3
 20
593.0
 10
136.0
 20
590.3000000000001
 10
131.0
 20
589.5
 10
124.0
 20
589.5
 10
124.0
 20
589.4
 10
63.5
 20
589.4
 10
63.5
 20
669.6
 10
64.3
 20
674.6
 10
67.0
 20
679.9
 10
71.2
 20
684.2
 10
76.60000000000001
 20
686.9
 10
82.5
 20
687.8000000000001
 10
88.4
 20
686.9
 10
93.8
 20
684.2
 10
98.0
 20
679.9
 10
100.7
 20
674.6
 10
101.5
 20
669.6
 10
101.5
 20
662.7
 10
124.0
 20
627.5
 10
131.0
 20
627.5
 10
136.0
 20
626.7
 10
141.3
 20
624.0
 10
145.6
 20
619.8000000000001
 10
148.3
 20
614.4
  0
LWPOLYLINE
  5
60
330
1F
100
AcDbEntity
  8
ohmic
100
AcDbPolyline
 90
        4
 70
     1
 43
0.0
 10
1836.5
 20
622.0
 10
1836.5
 20
722.0
 10
1936.5
 20
722.0
 10
1936.5
 20
622.0
  0
LWPOLYLINE
  5
61
330
1F
100
AcDbEntity
  8
ohmic
100
AcDbPolyline
 90
        9
 70
     1
 43
0.0
 10
1110.9
 20
1405.5
 10
1110.9
 20
1436.4
 10
1090.4
 20
1436.4
 10
1090.4
 20
1536.4
 10
1190.4
 20
1536.4
 10
1190.4
 20
1436.4
 10
1163.9
 20
1436.4
 10
1163.9
 20
1405.5
 10
1110.9
 20
1405.5
  0
LWPOLYLINE
  5
62
330
1F
100
AcDbEntity
  8
ohmic
100
AcDbPolyline
 90
        4
 70
     1
 43
0.0
 10
790.4
 20
1436.4
 10
790.4
 20
1536.4
 10
890.4
 20
1536.4
 10
890.4
 20
1436.4
  0
LWPOLYLINE
  5
63
330
1F
100
AcDbEntity
  8
ohmic
100
AcDbPolyline
 90
        4
 70
     1
 43
0.0
 10
940.4
 20
1436.4
 10
940.4
 20
1536.4
 10
1040.4
 20
1536.4
 10
1040.4
 20
1436.4
  0
LWPOLYLINE
  5
64
330
1F
100
AcDbEntity
  8
ohmic
100
AcDbPolyline
 90
        4
 70
     1
 43
0.0
 10
1240.4
 20
1436.4
 10
1240.4
 20
1536.4
 10
1340.4
 20
1536.4
 10
1340.4
 20
1436.4
  0
LWPOLYLINE
  5
65
330
1F
100
AcDbEntity
  8
ohmic
100
AcDbPolyline
 90
        4
 70
     1
 43
0.0
 10
1390.4
 20
1436.4
 10
1390.4
 20
1536.4
 10
1490.4
 20
1536.4
 10
1490.4
 20
1436.4
  0
LWPOLYLINE
  5
66
330
1F
100
AcDbEntity
  8
ohmic
100
AcDbPolyline
 90
       28
 70
     1
 43
0.0
 10
148.3
 20
441.4
 10
149.2
 20
435.5
 10
148.3
 20
429.6
 10
145.6
 20
424.2
 10
141.3
 20
420.0
 10
136.0
 20
417.3
 10
131.0
 20
416.5
 10
123.5
 20
416.5
 10
101.5
 20
381.3
 10
101.5
 20
374.4
 10
100.7
 20
369.4
 10
98.0
 20
364.1
 10
93.8
 20
359.8
 10
88.4
 20
357.1
 10
82.511
 20
356.2
 10
76.60000000000001
 20
357.1
 10
71.2
 20
359.8
 10
67.0
 20
364.1
 10
64.3
 20
369.4
 10
63.5
 20
374.4
 10
63.5
 20
454.6
 10
122.5
 20
454.6
 10
122.5
 20
454.5
 10
131.0
 20
454.5
 10
136.0
 20
453.7
 10
141.3
 20
451.0
 10
145.6
 20
446.8
 10
148.3
 20
441.4
  0
LWPOLYLINE
  5
67
330
1F
100
AcDbEntity
  8
ohmic
100
AcDbPolyline
 90
        4
 70
     1
 43
0.0
 10
63.5
 20
490.5
 10
63.5
 20
553.5
 10
135.7
 20
553.5
 10
135.7
 20
490.5
  0
LWPOLYLINE
  5
68
330
1F
100
AcDbEntity
  8
ohmic
100
AcDbPolyline
 90
        9
 70
     1
 43
0.0
 10
1836.5
 20
172.0
 10
1836.5
 20
195.5
 10
1801.5
 20
195.5
 10
1801.5
 20
248.5
 10
1836.5
 20
248.5
 10
1836.5
 20
272.0
 10
1936.5
 20
272.0
 10
1936.5
 20
172.0
 10
1836.5
 20
172.0
  0
LWPOLYLINE
  5
69
330
1F
100
AcDbEntity
  8
ohmic
100
AcDbPolyline
 90
        4
 70
     1
 43
0.0
 10
1836.5
 20
322.0
 10
1836.5
 20
422.0
 10
1936.5
 20
422.0
 10
1936.5
 20
322.0
  0
LWPOLYLINE
  5
6A
330
1F
100
AcDbEntity
  8
ohmic
100
AcDbPolyline
 90
        9
 70
     1
 43
0.0
 10
1836.5
 20
472.0
 10
1836.5
 20
495.5
 10
1801.5
 20
495.5
 10
1801.5
 20
548.5
 10
1836.5
 20
548.5
 10
1836.5
 20
572.0
 10
1936.5
 20
572.0
 10
1936.5
 20
472.0
 10
1836.5
 20
472.0
  0
LWPOLYLINE
  5
6B
330
1F
100
AcDbEntity
  8
ohmic
100
AcDbPolyline
 90
        9
 70
     1
 43
0.0
 10
1836.5
 20
772.0
 10
1836.5
 20
795.5
 10
1801.5
 20
795.5
 10
1801.5
 20
848.5
 10
1836.5
 20
848.5
 10
1836.5
 20
872.0
 10
1936.5
 20
872.0
 10
1936.5
 20
772.0
 10
1836.5
 20
772.0
  0
LWPOLYLINE
  5
6C
330
1F
100
AcDbEntity
  8
ohmic
100
AcDbPolyline
 90
       28
 70
     1
 43
0.0
 10
1799.1
 20
88.4
 10
1800.0
 20
82.511
 10
1799.1
 20
76.60000000000001
 10
1796.4
 20
71.2
 10
1792.1
 20
67.0
 10
1786.8
 20
64.3
 10
1781.8
 20
63.5
 10
1701.6
 20
63.5
 10
1701.6
 20
122.5
 10
1701.7
 20
122.5
 10
1701.7
 20
131.0
 10
1702.5
 20
136.0
 10
1705.2
 20
141.3
 10
1709.4
 20
145.6
 10
1714.8
 20
148.3
 10
1720.7
 20
149.2
 10
1726.6
 20
148.3
 10
1732.0
 20
145.6
 10
1736.2
 20
141.3
 10
1738.9
 20
136.0
 10
1739.7
 20
131.0
 10
1739.7
 20
123.5
 10
1774.9
 20
101.5
 10
1781.8
 20
101.5
 10
1786.8
 20
100.7
 10
1792.1
 20
98.0
 10
1796.4
 20
93.8
 10
1799.1
 20
88.4
  0
LWPOLYLINE
  5
6D
330
1F
100
AcDbEntity
  8
ohmic
100
AcDbPolyline
 90
        4
 70
     1
 43
0.0
 10
1602.7
 20
63.5
 10
1602.7
 20
135.7
 10
1665.7
 20
135.7
 10
1665.7
 20
63.5
  0
LWPOLYLINE
  5
6E
330
1F
100
AcDbEntity
  8
ohmic
100
AcDbPolyline
 90
       28
 70
     1
 43
0.0
 10
1566.7
 20
124.0
 10
1566.8
 20
124.0
 10
1566.8
 20
63.5
 10
1486.6
 20
63.5
 10
1481.6
 20
64.3
 10
1476.3
 20
67.0
 10
1472.0
 20
71.2
 10
1469.3
 20
76.60000000000001
 10
1468.4
 20
82.5
 10
1469.3
 20
88.4
 10
1472.0
 20
93.8
 10
1476.3
 20
98.0
 10
1481.6
 20
100.7
 10
1486.6
 20
101.5
 10
1493.5
 20
101.5
 10
1528.7
 20
124.0
 10
1528.7
 20
131.0
 10
1529.5
 20
136.0
 10
1532.2
 20
141.3
 10
1536.4
 20
145.6
 10
1541.8
 20
148.3
 10
1547.7
 20
149.2
 10
1553.6
 20
148.3
 10
1559.0
 20
145.6
 10
1563.2
 20
141.3
 10
1565.9
 20
136.0
 10
1566.7
 20
131.0
 10
1566.7
 20
124.0
  0
LWPOLYLINE
  5
6F
330
1F
100
AcDbEntity
  8
met1
100
AcDbPolyline
 90
       51
 70
     1
 43
0.0
 10
418.828
 20
121.9
 10
417.028
 20
122.1
 10
413.828
 20
122.5
 10
407.428
 20
123.7
 10
400.228
 20
125.3
 10
393.428
 20
127.7
 10
387.028
 20
130.5
 10
381.428
 20
133.7
 10
376.228
 20
137.3
 10
371.428
 20
140.9
 10
367.828
 20
144.9
 10
364.628
 20
149.3
 10
362.228
 20
153.3
 10
361.028
 20
158.1
 10
360.628
 20
162.5
 10
361.028
 20
166.1
 10
361.828
 20
170.1
 10
362.628
 20
172.1
 10
363.428
 20
173.7
 10
367.028
 20
178.5
 10
368.628
 20
179.7
 10
370.628
 20
180.9
 10
372.228
 20
182.1
 10
377.028
 20
184.5
 10
373.828
 20
183.3
 10
368.228
 20
180.9
 10
365.428
 20
179.3
 10
363.028
 20
177.3
 10
360.628
 20
175.7
 10
356.628
 20
171.7
 10
355.028
 20
169.7
 10
353.828
 20
167.3
 10
353.028
 20
165.3
 10
352.228
 20
162.9
 10
351.828
 20
158.9
 10
352.228
 20
154.5
 10
353.828
 20
150.1
 10
355.828
 20
145.7
 10
359.028
 20
141.3
 10
362.628
 20
137.3
 10
367.428
 20
133.7
 10
372.628
 20
130.1
 10
378.228
 20
126.9
 10
384.628
 20
124.5
 10
391.428
 20
122.1
 10
398.628
 20
120.1
 10
405.028
 20
118.9
 10
409.428
 20
118.5
 10
413.428
 20
118.1
 10
418.828
 20
118.1
 10
418.828
 20
121.9
  0
LWPOLYLINE
  5
71
330
1F
100
AcDbEntity
  8
met1
100
AcDbPolyline
 90
       95
 70
     1
 43
0.0
 10
418.828
 20
183.1
 10
416.628
 20
185.3
 10
415.428
 20
186.1
 10
413.828
 20
187.3
 10
411.828
 20
188.1
 10
410.228
 20
188.9
 10
408.628
 20
189.3
 10
404.628
 20
190.1
 10
396.628
 20
190.1
 10
392.628
 20
189.3
 10
390.228
 20
188.5
 10
390.628
 20
188.5
 10
392.228
 20
188.9
 10
394.228
 20
188.9
 10
395.828
 20
189.3
 10
397.428
 20
189.3
 10
399.028
 20
188.9
 10
400.628
 20
188.9
 10
402.228
 20
188.5
 10
403.428
 20
188.1
 10
405.028
 20
187.3
 10
406.228
 20
186.9
 10
407.828
 20
186.1
 10
410.228
 20
184.5
 10
413.828
 20
180.9
 10
415.428
 20
178.5
 10
416.228
 20
176.9
 10
417.028
 20
175.7
 10
417.828
 20
174.1
 10
417.828
 20
172.9
 10
410.628
 20
172.1
 10
407.428
 20
171.3
 10
403.828
 20
170.5
 10
400.628
 20
169.7
 10
397.428
 20
168.5
 10
394.228
 20
167.7
 10
391.428
 20
166.5
 10
388.628
 20
164.9
 10
385.828
 20
163.7
 10
383.428
 20
162.1
 10
385.428
 20
162.9
 10
387.828
 20
164.1
 10
390.228
 20
164.9
 10
392.228
 20
165.7
 10
394.628
 20
166.1
 10
397.428
 20
166.9
 10
399.828
 20
167.3
 10
405.428
 20
168.1
 10
408.228
 20
168.1
 10
411.028
 20
168.5
 10
416.628
 20
168.9
 10
418.628
 20
168.9
 10
418.228
 20
168.1
 10
417.028
 20
162.9
 10
416.628
 20
157.7
 10
416.628
 20
152.1
 10
417.028
 20
148.9
 10
414.628
 20
150.1
 10
412.628
 20
150.5
 10
411.028
 20
151.3
 10
409.028
 20
151.3
 10
407.428
 20
151.7
 10
405.428
 20
151.7
 10
403.428
 20
151.3
 10
401.828
 20
151.3
 10
399.828
 20
150.5
 10
398.228
 20
150.1
 10
396.228
 20
149.3
 10
394.628
 20
148.5
 10
392.628
 20
147.3
 10
391.028
 20
146.5
 10
389.028
 20
145.3
 10
386.228
 20
142.5
 10
387.428
 20
143.3
 10
389.028
 20
144.5
 10
390.628
 20
145.3
 10
391.828
 20
146.1
 10
395.028
 20
146.9
 10
396.228
 20
147.3
 10
397.828
 20
147.7
 10
399.428
 20
147.7
 10
401.028
 20
148.1
 10
402.628
 20
147.7
 10
403.828
 20
147.7
 10
405.428
 20
147.3
 10
407.028
 20
147.3
 10
408.628
 20
146.9
 10
409.828
 20
146.5
 10
412.228
 20
144.9
 10
413.428
 20
144.5
 10
414.628
 20
143.3
 10
417.028
 20
141.7
 10
417.828
 20
140.5
 10
418.828
 20
139.5
 10
418.828
 20
183.1
  0
LWPOLYLINE
  5
72
330
1F
100
AcDbEntity
  8
met1
100
AcDbPolyline
 90
      142
 70
     1
 43
0.0
 10
485.828
 20
178.1
 10
483.828
 20
178.5
 10
472.628
 20
178.5
 10
467.828
 20
177.7
 10
465.028
 20
176.9
 10
462.628
 20
176.5
 10
460.228
 20
175.7
 10
457.828
 20
174.5
 10
455.428
 20
173.7
 10
453.428
 20
172.5
 10
450.628
 20
170.9
 10
448.228
 20
169.3
 10
446.628
 20
169.7
 10
441.428
 20
171.3
 10
435.428
 20
172.5
 10
429.828
 20
172.9
 10
430.228
 20
174.9
 10
434.228
 20
183.7
 10
436.628
 20
186.9
 10
440.228
 20
190.5
 10
441.828
 20
191.7
 10
443.028
 20
192.5
 10
444.628
 20
193.7
 10
446.228
 20
194.5
 10
450.228
 20
196.1
 10
452.228
 20
196.5
 10
454.228
 20
197.3
 10
456.228
 20
197.3
 10
458.628
 20
197.7
 10
461.028
 20
197.7
 10
458.228
 20
198.1
 10
450.628
 20
198.1
 10
448.228
 20
197.7
 10
441.028
 20
195.3
 10
436.228
 20
192.9
 10
433.828
 20
191.3
 10
431.828
 20
189.7
 10
428.228
 20
186.5
 10
425.028
 20
182.1
 10
422.628
 20
178.5
 10
421.828
 20
179.3
 10
421.028
 20
180.9
 10
418.828
 20
183.1
 10
418.828
 20
139.5
 10
419.028
 20
139.3
 10
419.828
 20
138.1
 10
420.228
 20
137.7
 10
420.628
 20
136.5
 10
423.028
 20
131.7
 10
425.828
 20
128.1
 10
427.428
 20
125.7
 10
431.428
 20
121.7
 10
432.228
 20
121.3
 10
423.828
 20
121.3
 10
420.628
 20
121.7
 10
418.828
 20
121.9
 10
418.828
 20
118.1
 10
421.428
 20
118.1
 10
433.428
 20
119.3
 10
434.228
 20
119.7
 10
435.828
 20
118.5
 10
437.828
 20
116.9
 10
440.228
 20
116.1
 10
442.628
 20
114.9
 10
447.428
 20
113.3
 10
450.228
 20
112.9
 10
452.628
 20
112.9
 10
448.628
 20
113.7
 10
444.628
 20
115.3
 10
443.028
 20
116.1
 10
441.428
 20
117.3
 10
439.028
 20
119.7
 10
438.628
 20
120.5
 10
440.628
 20
120.9
 10
443.828
 20
122.1
 10
447.028
 20
122.9
 10
449.828
 20
124.1
 10
447.428
 20
123.3
 10
444.628
 20
122.5
 10
439.028
 20
121.7
 10
438.228
 20
121.7
 10
437.828
 20
122.1
 10
436.628
 20
125.3
 10
436.228
 20
128.5
 10
435.828
 20
132.1
 10
436.228
 20
136.1
 10
437.028
 20
140.1
 10
438.228
 20
144.1
 10
439.828
 20
148.1
 10
441.828
 20
152.1
 10
444.228
 20
156.1
 10
446.628
 20
159.7
 10
448.628
 20
162.1
 10
449.428
 20
161.3
 10
453.428
 20
158.9
 10
456.628
 20
156.1
 10
459.428
 20
152.9
 10
461.428
 20
149.7
 10
462.628
 20
146.1
 10
463.028
 20
143.3
 10
463.028
 20
141.7
 10
462.628
 20
139.7
 10
462.628
 20
138.1
 10
462.228
 20
136.9
 10
460.628
 20
133.7
 10
459.828
 20
132.5
 10
459.028
 20
130.9
 10
457.828
 20
129.7
 10
456.228
 20
128.5
 10
454.628
 20
126.9
 10
453.028
 20
125.7
 10
455.428
 20
127.3
 10
457.428
 20
128.5
 10
459.428
 20
130.5
 10
461.428
 20
132.1
 10
463.028
 20
133.7
 10
466.228
 20
137.7
 10
467.428
 20
139.3
 10
469.028
 20
143.3
 10
469.428
 20
145.3
 10
469.428
 20
147.3
 10
469.028
 20
150.5
 10
467.828
 20
154.1
 10
465.828
 20
157.3
 10
463.428
 20
160.5
 10
459.828
 20
163.3
 10
456.228
 20
165.7
 10
453.828
 20
166.9
 10
457.028
 20
169.3
 10
459.428
 20
170.9
 10
461.428
 20
172.1
 10
463.428
 20
172.9
 10
465.428
 20
174.1
 10
467.028
 20
174.9
 10
469.028
 20
175.3
 10
471.028
 20
176.1
 10
473.028
 20
176.5
 10
475.028
 20
177.3
 10
476.628
 20
177.7
 10
478.628
 20
177.7
 10
480.628
 20
178.1
 10
485.828
 20
178.1
  0
LWPOLYLINE
  5
73
330
1F
100
AcDbEntity
  8
met1
100
AcDbPolyline
 90
       74
 70
     1
 43
0.0
 10
520.2280000000001
 20
153.3
 10
520.628
 20
150.1
 10
520.628
 20
144.5
 10
518.628
 20
138.1
 10
515.428
 20
132.1
 10
511.028
 20
126.5
 10
505.428
 20
121.3
 10
498.628
 20
116.1
 10
490.628
 20
112.1
 10
481.828
 20
108.1
 10
472.228
 20
104.9
 10
461.828
 20
102.5
 10
451.028
 20
100.9
 10
439.428
 20
99.7
 10
429.428
 20
99.7
 10
423.028
 20
100.1
 10
416.628
 20
100.5
 10
410.228
 20
100.9
 10
404.228
 20
102.1
 10
398.228
 20
103.3
 10
392.228
 20
104.5
 10
386.628
 20
106.1
 10
381.428
 20
107.7
 10
376.228
 20
109.7
 10
371.428
 20
111.7
 10
366.628
 20
114.1
 10
362.628
 20
116.1
 10
366.628
 20
114.5
 10
370.228
 20
112.9
 10
374.228
 20
111.3
 10
378.628
 20
109.7
 10
382.628
 20
108.5
 10
387.028
 20
107.7
 10
391.828
 20
106.5
 10
396.228
 20
105.7
 10
401.028
 20
105.3
 10
406.228
 20
104.9
 10
411.428
 20
104.5
 10
426.628
 20
104.5
 10
438.228
 20
105.7
 10
449.028
 20
107.3
 10
459.428
 20
109.7
 10
469.028
 20
112.9
 10
477.828
 20
116.9
 10
485.828
 20
120.9
 10
492.628
 20
125.7
 10
498.228
 20
131.3
 10
502.628
 20
136.9
 10
505.828
 20
142.9
 10
507.828
 20
149.3
 10
508.228
 20
154.5
 10
507.828
 20
157.7
 10
507.428
 20
160.5
 10
507.028
 20
163.3
 10
506.228
 20
166.1
 10
505.028
 20
168.9
 10
503.428
 20
171.7
 10
501.828
 20
174.1
 10
499.828
 20
176.5
 10
497.828
 20
178.9
 10
495.028
 20
181.3
 10
492.228
 20
183.3
 10
489.028
 20
185.7
 10
493.028
 20
183.3
 10
497.428
 20
180.9
 10
501.028
 20
178.5
 10
504.628
 20
175.7
 10
508.228
 20
172.9
 10
511.028
 20
169.7
 10
513.828
 20
166.5
 10
516.2280000000001
 20
163.7
 10
517.828
 20
160.1
 10
519.428
 20
156.9
 10
520.2280000000001
 20
153.3
  0
LWPOLYLINE
  5
74
330
1F
100
AcDbEntity
  8
met1
100
AcDbPolyline
 90
        9
 70
     1
 43
0.0
 10
907.14
 20
127.145
 10
907.14
 20
130.715
 10
914.285
 20
137.86
 10
925.0
 20
137.86
 10
928.57
 20
134.285
 10
928.57
 20
127.145
 10
925.0
 20
123.575
 10
910.71
 20
123.575
 10
907.14
 20
127.145
  0
LWPOLYLINE
  5
75
330
1F
100
AcDbEntity
  8
met1
100
AcDbPolyline
 90
       17
 70
     1
 43
0.0
 10
900.0
 20
123.575
 10
900.0
 20
159.285
 10
907.14
 20
166.43
 10
928.57
 20
166.43
 10
935.71
 20
159.285
 10
928.57
 20
155.715
 10
925.0
 20
159.285
 10
910.71
 20
159.285
 10
907.14
 20
155.715
 10
907.14
 20
141.43
 10
910.71
 20
145.0
 10
928.57
 20
145.0
 10
935.71
 20
137.86
 10
935.71
 20
123.575
 10
928.57
 20
116.43
 10
907.14
 20
116.43
 10
900.0
 20
123.575
  0
LWPOLYLINE
  5
76
330
1F
100
AcDbEntity
  8
met1
100
AcDbPolyline
 90
       11
 70
     1
 43
0.0
 10
857.14
 20
116.43
 10
857.14
 20
123.575
 10
864.285
 20
123.575
 10
864.285
 20
159.285
 10
857.14
 20
159.285
 10
864.285
 20
166.43
 10
871.4250000000001
 20
166.43
 10
871.4250000000001
 20
123.575
 10
878.57
 20
123.575
 10
878.57
 20
116.43
 10
857.14
 20
116.43
  0
LWPOLYLINE
  5
77
330
1F
100
AcDbEntity
  8
met1
100
AcDbPolyline
 90
        9
 70
     1
 43
0.0
 10
810.71
 20
127.145
 10
810.71
 20
155.715
 10
814.285
 20
159.285
 10
821.4250000000001
 20
159.285
 10
825.0
 20
155.715
 10
825.0
 20
127.145
 10
821.4250000000001
 20
123.575
 10
814.285
 20
123.575
 10
810.71
 20
127.145
  0
LWPOLYLINE
  5
78
330
1F
100
AcDbEntity
  8
met1
100
AcDbPolyline
 90
        9
 70
     1
 43
0.0
 10
803.57
 20
123.575
 10
803.57
 20
159.285
 10
810.71
 20
166.43
 10
825.0
 20
166.43
 10
832.14
 20
159.285
 10
832.14
 20
123.575
 10
825.0
 20
116.43
 10
810.71
 20
116.43
 10
803.57
 20
123.575
  0
LWPOLYLINE
  5
79
330
1F
100
AcDbEntity
  8
met1
100
AcDbPolyline
 90
        9
 70
     1
 43
0.0
 10
760.71
 20
127.145
 10
760.71
 20
155.715
 10
764.285
 20
159.285
 10
771.4250000000001
 20
159.285
 10
775.0
 20
155.715
 10
775.0
 20
127.145
 10
771.4250000000001
 20
123.575
 10
764.285
 20
123.575
 10
760.71
 20
127.145
  0
LWPOLYLINE
  5
7A
330
1F
100
AcDbEntity
  8
met1
100
AcDbPolyline
 90
        9
 70
     1
 43
0.0
 10
753.57
 20
123.575
 10
753.57
 20
159.285
 10
760.71
 20
166.43
 10
775.0
 20
166.43
 10
782.14
 20
159.285
 10
782.14
 20
123.575
 10
775.0
 20
116.43
 10
760.71
 20
116.43
 10
753.57
 20
123.575
  0
LWPOLYLINE
  5
7B
330
1F
100
AcDbEntity
  8
met1
100
AcDbPolyline
 90
       11
 70
     1
 43
0.0
 10
710.71
 20
123.575
 10
721.4250000000001
 20
123.575
 10
717.855
 20
127.145
 10
725.0
 20
134.285
 10
728.57
 20
130.715
 10
728.57
 20
155.715
 10
725.0
 20
159.285
 10
710.71
 20
159.285
 10
707.14
 20
155.715
 10
707.14
 20
127.145
 10
710.71
 20
123.575
  0
LWPOLYLINE
  5
7C
330
1F
100
AcDbEntity
  8
met1
100
AcDbPolyline
 90
       11
 70
     1
 43
0.0
 10
700.0
 20
123.575
 10
700.0
 20
159.285
 10
707.14
 20
166.43
 10
728.57
 20
166.43
 10
735.71
 20
159.285
 10
735.71
 20
123.575
 10
739.285
 20
120.001
 10
732.14
 20
112.859
 10
728.57
 20
116.43
 10
707.14
 20
116.43
 10
700.0
 20
123.575
  0
LWPOLYLINE
  5
7D
330
1F
100
AcDbEntity
  8
met1
100
AcDbPolyline
 90
       21
 70
     1
 43
0.0
 10
650.0
 20
123.575
 10
650.0
 20
159.285
 10
657.14
 20
166.43
 10
678.57
 20
166.43
 10
685.71
 20
159.285
 10
685.71
 20
152.145
 10
678.57
 20
152.145
 10
678.57
 20
155.715
 10
675.0
 20
159.285
 10
660.71
 20
159.285
 10
657.14
 20
155.715
 10
657.14
 20
127.145
 10
660.71
 20
123.575
 10
675.0
 20
123.575
 10
678.57
 20
127.145
 10
678.57
 20
130.715
 10
685.71
 20
130.715
 10
685.71
 20
123.575
 10
678.57
 20
116.43
 10
657.14
 20
116.43
 10
650.0
 20
123.575
  0
LWPOLYLINE
  5
7E
330
1F
100
AcDbEntity
  8
met1
100
AcDbPolyline
 90
        7
 70
     1
 43
0.0
 10
607.14
 20
145.0
 10
625.0
 20
145.0
 10
628.57
 20
148.575
 10
628.57
 20
155.715
 10
625.0
 20
159.285
 10
607.14
 20
159.285
 10
607.14
 20
145.0
  0
LWPOLYLINE
  5
7F
330
1F
100
AcDbEntity
  8
met1
100
AcDbPolyline
 90
       13
 70
     1
 43
0.0
 10
600.0
 20
116.43
 10
600.0
 20
166.43
 10
628.57
 20
166.43
 10
635.71
 20
159.285
 10
635.71
 20
145.0
 10
628.57
 20
137.86
 10
617.855
 20
137.86
 10
635.71
 20
120.001
 10
635.71
 20
116.43
 10
628.57
 20
116.43
 10
607.14
 20
137.86
 10
607.14
 20
116.43
 10
600.0
 20
116.43
  0
LWPOLYLINE
  5
80
330
1F
100
AcDbEntity
  8
met1
100
AcDbPolyline
 90
        9
 70
     1
 43
0.0
 10
571.4250000000001
 20
127.145
 10
571.4250000000001
 20
134.285
 10
567.855
 20
137.86
 10
564.285
 20
137.86
 10
560.71
 20
134.285
 10
560.71
 20
127.145
 10
564.285
 20
123.575
 10
567.855
 20
123.575
 10
571.4250000000001
 20
127.145
  0
LWPOLYLINE
  5
81
330
1F
100
AcDbEntity
  8
met1
100
AcDbPolyline
 90
       18
 70
     1
 43
0.0
 10
575.0
 20
116.43
 10
575.0
 20
112.859
 10
571.4250000000001
 20
109.285
 10
553.57
 20
109.285
 10
553.57
 20
102.145
 10
575.0
 20
102.145
 10
582.14
 20
109.285
 10
582.14
 20
145.0
 10
575.0
 20
145.0
 10
575.0
 20
141.43
 10
571.4250000000001
 20
145.0
 10
560.71
 20
145.0
 10
553.57
 20
137.86
 10
553.57
 20
123.575
 10
560.71
 20
116.43
 10
571.4250000000001
 20
116.43
 10
575.0
 20
120.001
 10
575.0
 20
116.43
  0
ENDSEC
  0
SECTION
  2
OBJECTS
  0
DICTIONARY
  5
C
330
0
100
AcDbDictionary
281
     1
  3
ACAD_GROUP
350
D
  3
ACAD_LAYOUT
350
1A
  3
ACAD_MLEADERSTYLE
350
83
  3
ACAD_MLINESTYLE
350
17
  3
ACAD_PLOTSETTINGS
350
19
  3
ACAD_PLOTSTYLENAME
350
E
  3
ACAD_SCALELIST
350
3B
  3
ACAD_TABLESTYLE
350
82
  3
ACAD_VISUALSTYLE
350
2A
  0
DICTIONARY
  5
D
102
{ACAD_REACTORS
330
C
102
}
330
C
100
AcDbDictionary
281
     1
  0
DICTIONARY
  5
1A
102
{ACAD_REACTORS
330
C
102
}
330
C
100
AcDbDictionary
281
     1
  3
Layout1
350
1E
  3
Layout2
350
26
  3
Model
350
22
  0
DICTIONARY
  5
83
102
{ACAD_REACTORS
330
C
102
}
330
C
100
AcDbDictionary
281
     1
  0
DICTIONARY
  5
17
102
{ACAD_REACTORS
330
C
102
}
330
C
100
AcDbDictionary
281
     1
  3
Standard
350
18
  0
DICTIONARY
  5
19
102
{ACAD_REACTORS
330
C
102
}
330
C
100
AcDbDictionary
281
     1
  0
ACDBDICTIONARYWDFLT
  5
E
102
{ACAD_REACTORS
330
C
102
}
330
C
100
AcDbDictionary
281
     1
  3
Normal
350
F
100
AcDbDictionaryWithDefault
340
F
  0
DICTIONARY
  5
3B
102
{ACAD_REACTORS
330
C
102
}
330
C
100
AcDbDictionary
281
     1
  3
A0
350
3C
  3
A1
350
3D
  3
A2
350
3E
  3
A3
350
3F
  3
A4
350
40
  3
A5
350
41
  3
A6
350
42
  3
A7
350
43
  3
A8
350
44
  3
A9
350
45
  3
B0
350
46
  3
B1
350
47
  3
B2
350
48
  3
B3
350
49
  3
B4
350
4A
  3
B5
350
4B
  3
B6
350
4C
  3
B7
350
4D
  3
B8
350
4E
  3
B9
350
4F
  3
C0
350
50
  3
C1
350
51
  3
C2
350
52
  3
C3
350
53
  3
C4
350
54
  3
C5
350
55
  3
C6
350
56
  3
C7
350
57
  3
C8
350
58
  3
C9
350
59
  3
D0
350
5A
  3
D1
350
5B
  3
D2
350
5C
  0
DICTIONARY
  5
82
102
{ACAD_REACTORS
330
C
102
}
330
C
100
AcDbDictionary
281
     1
  0
DICTIONARY
  5
2A
102
{ACAD_REACTORS
330
C
102
}
330
C
100
AcDbDictionary
281
     1
  3
2dWireframe
350
2F
  3
3D Hidden
350
31
  3
3dWireframe
350
30
  3
Basic
350
32
  3
Brighten
350
36
  3
ColorChange
350
3A
  3
Conceptual
350
34
  3
Dim
350
35
  3
Facepattern
350
39
  3
Flat
350
2B
  3
FlatWithEdges
350
2C
  3
Gouraud
350
2D
  3
GouraudWithEdges
350
2E
  3
Linepattern
350
38
  3
Realistic
350
33
  3
Thicken
350
37
  0
LAYOUT
  5
1E
102
{ACAD_REACTORS
330
1A
102
}
330
1A
100
AcDbPlotSettings
  1

  2
none_device
  4

  6

 40
0.0
 41
0.0
 42
0.0
 43
0.0
 44
0.0
 45
0.0
 46
0.0
 47
0.0
 48
0.0
 49
0.0
140
0.0
141
0.0
142
1.0
143
1.0
 70
   688
 72
     0
 73
     0
 74
     5
  7

 75
    16
 76
     0
 77
     2
 78
   300
147
1.0
148
0.0
149
0.0
100
AcDbLayout
  1
Layout1
 70
     1
 71
     1
 10
0.0
 20
0.0
 11
12.0
 21
9.0
 12
0.0
 22
0.0
 32
0.0
 14
1.000000000000000E+20
 24
1.000000000000000E+20
 34
1.000000000000000E+20
 15
-1.000000000000000E+20
 25
-1.000000000000000E+20
 35
-1.000000000000000E+20
146
0.0
 13
0.0
 23
0.0
 33
0.0
 16
1.0
 26
0.0
 36
0.0
 17
0.0
 27
1.0
 37
0.0
 76
     0
330
1B
  0
LAYOUT
  5
26
102
{ACAD_REACTORS
330
1A
102
}
330
1A
100
AcDbPlotSettings
  1

  2
none_device
  4

  6

 40
0.0
 41
0.0
 42
0.0
 43
0.0
 44
0.0
 45
0.0
 46
0.0
 47
0.0
 48
0.0
 49
0.0
140
0.0
141
0.0
142
1.0
143
1.0
 70
   688
 72
     0
 73
     0
 74
     5
  7

 75
    16
 76
     0
 77
     2
 78
   300
147
1.0
148
0.0
149
0.0
100
AcDbLayout
  1
Layout2
 70
     1
 71
     2
 10
0.0
 20
0.0
 11
0.0
 21
0.0
 12
0.0
 22
0.0
 32
0.0
 14
0.0
 24
0.0
 34
0.0
 15
0.0
 25
0.0
 35
0.0
146
0.0
 13
0.0
 23
0.0
 33
0.0
 16
1.0
 26
0.0
 36
0.0
 17
0.0
 27
1.0
 37
0.0
 76
     0
330
23
  0
LAYOUT
  5
22
102
{ACAD_REACTORS
330
1A
102
}
330
1A
100
AcDbPlotSettings
  1

  2
none_device
  4

  6

 40
0.0
 41
0.0
 42
0.0
 43
0.0
 44
0.0
 45
0.0
 46
0.0
 47
0.0
 48
0.0
 49
0.0
140
0.0
141
0.0
142
1.0
143
1.0
 70
  1712
 72
     0
 73
     0
 74
     0
  7

 75
     0
 76
     0
 77
     2
 78
   300
147
1.0
148
0.0
149
0.0
100
AcDbLayout
  1
Model
 70
     1
 71
     0
 10
0.0
 20
0.0
 11
12.0
 21
9.0
 12
0.0
 22
0.0
 32
0.0
 14
1.000000000000000E+20
 24
1.000000000000000E+20
 34
1.000000000000000E+20
 15
-1.000000000000000E+20
 25
-1.000000000000000E+20
 35
-1.000000000000000E+20
146
0.0
 13
0.0
 23
0.0
 33
0.0
 16
1.0
 26
0.0
 36
0.0
 17
0.0
 27
1.0
 37
0.0
 76
     0
330
1F
331
29
  0
MLINESTYLE
  5
18
102
{ACAD_REACTORS
330
17
102
}
330
17
100
AcDbMlineStyle
  2
Standard
 70
     0
  3

 62
   256
 51
90.0
 52
90.0
 71
     2
 49
0.5
 62
   256
  6
BYLAYER
 49
-0.5
 62
   256
  6
BYLAYER
  0
ACDBPLACEHOLDER
  5
F
102
{ACAD_REACTORS
330
E
102
}
330
E
  0
SCALE
  5
3C
102
{ACAD_REACTORS
330
3B
102
}
330
3B
100
AcDbScale
 70
     0
300
1:1
140
1.0
141
1.0
290
     1
  0
SCALE
  5
3D
102
{ACAD_REACTORS
330
3B
102
}
330
3B
100
AcDbScale
 70
     0
300
1:2
140
1.0
141
2.0
290
     0
  0
SCALE
  5
3E
102
{ACAD_REACTORS
330
3B
102
}
330
3B
100
AcDbScale
 70
     0
300
1:4
140
1.0
141
4.0
290
     0
  0
SCALE
  5
3F
102
{ACAD_REACTORS
330
3B
102
}
330
3B
100
AcDbScale
 70
     0
300
1:5
140
1.0
141
5.0
290
     0
  0
SCALE
  5
40
102
{ACAD_REACTORS
330
3B
102
}
330
3B
100
AcDbScale
 70
     0
300
1:8
140
1.0
141
8.0
290
     0
  0
SCALE
  5
41
102
{ACAD_REACTORS
330
3B
102
}
330
3B
100
AcDbScale
 70
     0
300
1:10
140
1.0
141
10.0
290
     0
  0
SCALE
  5
42
102
{ACAD_REACTORS
330
3B
102
}
330
3B
100
AcDbScale
 70
     0
300
1:16
140
1.0
141
16.0
290
     0
  0
SCALE
  5
43
102
{ACAD_REACTORS
330
3B
102
}
330
3B
100
AcDbScale
 70
     0
300
1:20
140
1.0
141
20.0
290
     0
  0
SCALE
  5
44
102
{ACAD_REACTORS
330
3B
102
}
330
3B
100
AcDbScale
 70
     0
300
1:30
140
1.0
141
30.0
290
     0
  0
SCALE
  5
45
102
{ACAD_REACTORS
330
3B
102
}
330
3B
100
AcDbScale
 70
     0
300
1:40
140
1.0
141
40.0
290
     0
  0
SCALE
  5
46
102
{ACAD_REACTORS
330
3B
102
}
330
3B
100
AcDbScale
 70
     0
300
1:50
140
1.0
141
50.0
290
     0
  0
SCALE
  5
47
102
{ACAD_REACTORS
330
3B
102
}
330
3B
100
AcDbScale
 70
     0
300
1:100
140
1.0
141
100.0
290
     0
  0
SCALE
  5
48
102
{ACAD_REACTORS
330
3B
102
}
330
3B
100
AcDbScale
 70
     0
300
2:1
140
2.0
141
1.0
290
     0
  0
SCALE
  5
49
102
{ACAD_REACTORS
330
3B
102
}
330
3B
100
AcDbScale
 70
     0
300
4:1
140
4.0
141
1.0
290
     0
  0
SCALE
  5
4A
102
{ACAD_REACTORS
330
3B
102
}
330
3B
100
AcDbScale
 70
     0
300
8:1
140
8.0
141
1.0
290
     0
  0
SCALE
  5
4B
102
{ACAD_REACTORS
330
3B
102
}
330
3B
100
AcDbScale
 70
     0
300
10:1
140
10.0
141
1.0
290
     0
  0
SCALE
  5
4C
102
{ACAD_REACTORS
330
3B
102
}
330
3B
100
AcDbScale
 70
     0
300
100:1
140
100.0
141
1.0
290
     0
  0
SCALE
  5
4D
102
{ACAD_REACTORS
330
3B
102
}
330
3B
100
AcDbScale
 70
     0
300
1/128" = 1'-0"
140
0.0078125
141
12.0
290
     0
  0
SCALE
  5
4E
102
{ACAD_REACTORS
330
3B
102
}
330
3B
100
AcDbScale
 70
     0
300
1/64" = 1'-0"
140
0.015625
141
12.0
290
     0
  0
SCALE
  5
4F
102
{ACAD_REACTORS
330
3B
102
}
330
3B
100
AcDbScale
 70
     0
300
1/32" = 1'-0"
140
0.03125
141
12.0
290
     0
  0
SCALE
  5
50
102
{ACAD_REACTORS
330
3B
102
}
330
3B
100
AcDbScale
 70
     0
300
1/16" = 1'-0"
140
0.0625
141
12.0
290
     0
  0
SCALE
  5
51
102
{ACAD_REACTORS
330
3B
102
}
330
3B
100
AcDbScale
 70
     0
300
3/32" = 1'-0"
140
0.09375
141
12.0
290
     0
  0
SCALE
  5
52
102
{ACAD_REACTORS
330
3B
102
}
330
3B
100
AcDbScale
 70
     0
300
1/8" = 1'-0"
140
0.125
141
12.0
290
     0
  0
SCALE
  5
53
102
{ACAD_REACTORS
330
3B
102
}
330
3B
100
AcDbScale
 70
     0
300
3/16" = 1'-0"
140
0.1875
141
12.0
290
     0
  0
SCALE
  5
54
102
{ACAD_REACTORS
330
3B
102
}
330
3B
100
AcDbScale
 70
     0
300
1/4" = 1'-0"
140
0.25
141
12.0
290
     0
  0
SCALE
  5
55
102
{ACAD_REACTORS
330
3B
102
}
330
3B
100
AcDbScale
 70
     0
300
3/8" = 1'-0"
140
0.375
141
12.0
290
     0
  0
SCALE
  5
56
102
{ACAD_REACTORS
330
3B
102
}
330
3B
100
AcDbScale
 70
     0
300
1/2" = 1'-0"
140
0.5
141
12.0
290
     0
  0
SCALE
  5
57
102
{ACAD_REACTORS
330
3B
102
}
330
3B
100
AcDbScale
 70
     0
300
3/4" = 1'-0"
140
0.75
141
12.0
290
     0
  0
SCALE
  5
58
102
{ACAD_REACTORS
330
3B
102
}
330
3B
100
AcDbScale
 70
     0
300
1" = 1'-0"
140
1.0
141
12.0
290
     0
  0
SCALE
  5
59
102
{ACAD_REACTORS
330
3B
102
}
330
3B
100
AcDbScale
 70
     0
300
1-1/2" = 1'-0"
140
1.5
141
12.0
290
     0
  0
SCALE
  5
5A
102
{ACAD_REACTORS
330
3B
102
}
330
3B
100
AcDbScale
 70
     0
300
3" = 1'-0"
140
3.0
141
12.0
290
     0
  0
SCALE
  5
5B
102
{ACAD_REACTORS
330
3B
102
}
330
3B
100
AcDbScale
 70
     0
300
6" = 1'-0"
140
6.0
141
12.0
290
     0
  0
SCALE
  5
5C
102
{ACAD_REACTORS
330
3B
102
}
330
3B
100
AcDbScale
 70
     0
300
1'-0" = 1'-0"
140
12.0
141
12.0
290
     0
  0
VISUALSTYLE
  5
2F
102
{ACAD_REACTORS
330
2A
102
}
330
2A
100
AcDbVisualStyle
  2
2dWireframe
 70
     4
 71
     0
 72
     2
 73
     0
 90
        0
 40
-0.6
 41
-30.0
 62
     5
 63
     7
421
 16777215
 74
     1
 91
        4
 64
     7
 65
   257
 75
     1
175
     1
 42
1.0
 92
        0
 66
   257
 43
1.0
 76
     1
 77
     6
 78
     2
 67
     7
 79
     5
170
     0
171
     0
290
     0
174
     0
 93
        1
 44
0.0
173
     0
291
     0
 45
0.0
1001
ACAD
1000
AcDbSavedByObjectVersion
1070
     0
  0
VISUALSTYLE
  5
31
102
{ACAD_REACTORS
330
2A
102
}
330
2A
100
AcDbVisualStyle
  2
3D Hidden
 70
     6
 71
     1
 72
     2
 73
     2
 90
        0
 40
-0.6
 41
-30.0
 62
     5
 63
     7
421
 16777215
 74
     2
 91
        2
 64
     7
 65
   257
 75
     2
175
     1
 42
40.0
 92
        0
 66
   257
 43
1.0
 76
     1
 77
     6
 78
     2
 67
     7
 79
     3
170
     0
171
     0
290
     0
174
     0
 93
        1
 44
0.0
173
     0
291
     0
 45
0.0
1001
ACAD
1000
AcDbSavedByObjectVersion
1070
     0
  0
VISUALSTYLE
  5
30
102
{ACAD_REACTORS
330
2A
102
}
330
2A
100
AcDbVisualStyle
  2
3dWireframe
 70
     5
 71
     0
 72
     2
 73
     0
 90
        0
 40
-0.6
 41
-30.0
 62
     5
 63
     7
421
 16777215
 74
     1
 91
        4
 64
     7
 65
   257
 75
     1
175
     1
 42
1.0
 92
        0
 66
   257
 43
1.0
 76
     1
 77
     6
 78
     2
 67
     7
 79
     5
170
     0
171
     0
290
     0
174
     0
 93
        1
 44
0.0
173
     0
291
     0
 45
0.0
1001
ACAD
1000
AcDbSavedByObjectVersion
1070
     0
  0
VISUALSTYLE
  5
32
102
{ACAD_REACTORS
330
2A
102
}
330
2A
100
AcDbVisualStyle
  2
Basic
 70
     7
 71
     1
 72
     0
 73
     1
 90
        0
 40
-0.6
 41
-30.0
 62
     5
 63
     7
421
 16777215
 74
     0
 91
        4
 64
     7
 65
   257
 75
     1
175
     1
 42
1.0
 92
        8
 66
     7
 43
1.0
 76
     1
 77
     6
 78
     2
 67
     7
 79
     5
170
     0
171
     0
290
     0
174
     0
 93
        1
 44
0.0
173
     0
291
     1
 45
0.0
1001
ACAD
1000
AcDbSavedByObjectVersion
1070
     0
  0
VISUALSTYLE
  5
36
102
{ACAD_REACTORS
330
2A
102
}
330
2A
100
AcDbVisualStyle
  2
Brighten
 70
    12
 71
     2
 72
     2
 73
     0
 90
        0
 40
-0.6
 41
-30.0
 62
     5
 63
     7
421
 16777215
 74
     1
 91
        4
 64
     7
 65
   257
 75
     1
175
     1
 42
1.0
 92
        8
 66
     7
 43
1.0
 76
     1
 77
     6
 78
     2
 67
     7
 79
     5
170
     0
171
     0
290
     0
174
     0
 93
        1
 44
50.0
173
     0
291
     1
 45
0.0
1001
ACAD
1000
AcDbSavedByObjectVersion
1070
     0
  0
VISUALSTYLE
  5
3A
102
{ACAD_REACTORS
330
2A
102
}
330
2A
100
AcDbVisualStyle
  2
ColorChange
 70
    16
 71
     2
 72
     2
 73
     3
 90
        0
 40
-0.6
 41
-30.0
 62
     5
 63
     8
421
  8421504
 74
     1
 91
        4
 64
     7
 65
   257
 75
     1
175
     1
 42
1.0
 92
        8
 66
     8
424
  8421504
 43
1.0
 76
     1
 77
     6
 78
     2
 67
     7
 79
     5
170
     0
171
     0
290
     0
174
     0
 93
        1
 44
0.0
173
     0
291
     1
 45
0.0
1001
ACAD
1000
AcDbSavedByObjectVersion
1070
     0
  0
VISUALSTYLE
  5
34
102
{ACAD_REACTORS
330
2A
102
}
330
2A
100
AcDbVisualStyle
  2
Conceptual
 70
     9
 71
     3
 72
     2
 73
     0
 90
        0
 40
-0.6
 41
-30.0
 62
     5
 63
     7
421
 16777215
 74
     2
 91
        2
 64
     7
 65
   257
 75
     1
175
     1
 42
40.0
 92
        8
 66
     7
 43
1.0
 76
     1
 77
     6
 78
     2
 67
     7
 79
     3
170
     0
171
     0
290
     0
174
     0
 93
        1
 44
0.0
173
     0
291
     0
 45
0.0
1001
ACAD
1000
AcDbSavedByObjectVersion
1070
     0
  0
VISUALSTYLE
  5
35
102
{ACAD_REACTORS
330
2A
102
}
330
2A
100
AcDbVisualStyle
  2
Dim
 70
    11
 71
     2
 72
     2
 73
     0
 90
        0
 40
-0.6
 41
-30.0
 62
     5
 63
     7
421
 16777215
 74
     1
 91
        4
 64
     7
 65
   257
 75
     1
175
     1
 42
1.0
 92
        8
 66
     7
 43
1.0
 76
     1
 77
     6
 78
     2
 67
     7
 79
     5
170
     0
171
     0
290
     0
174
     0
 93
        1
 44
-50.0
173
     0
291
     1
 45
0.0
1001
ACAD
1000
AcDbSavedByObjectVersion
1070
     0
  0
VISUALSTYLE
  5
39
102
{ACAD_REACTORS
330
2A
102
}
330
2A
100
AcDbVisualStyle
  2
Facepattern
 70
    15
 71
     2
 72
     2
 73
     0
 90
        0
 40
-0.6
 41
-30.0
 62
     5
 63
     7
421
 16777215
 74
     1
 91
        4
 64
     7
 65
   257
 75
     1
175
     1
 42
1.0
 92
        8
 66
     7
 43
1.0
 76
     1
 77
     6
 78
     2
 67
     7
 79
     5
170
     0
171
     0
290
     0
174
     0
 93
        1
 44
0.0
173
     0
291
     1
 45
0.0
1001
ACAD
1000
AcDbSavedByObjectVersion
1070
     0
  0
VISUALSTYLE
  5
2B
102
{ACAD_REACTORS
330
2A
102
}
330
2A
100
AcDbVisualStyle
  2
Flat
 70
     0
 71
     2
 72
     1
 73
     1
 90
        2
 40
-0.6
 41
30.0
 62
     5
 63
     7
421
 16777215
 74
     0
 91
        4
 64
     7
 65
   257
 75
     1
175
     1
 42
1.0
 92
        8
 66
     7
 43
1.0
 76
     1
 77
     6
 78
     2
 67
     7
 79
     5
170
     0
171
     0
290
     0
174
     0
 93
       13
 44
0.0
173
     0
291
     1
 45
0.0
1001
ACAD
1000
AcDbSavedByObjectVersion
1070
     0
  0
VISUALSTYLE
  5
2C
102
{ACAD_REACTORS
330
2A
102
}
330
2A
100
AcDbVisualStyle
  2
FlatWithEdges
 70
     1
 71
     2
 72
     1
 73
     1
 90
        2
 40
-0.6
 41
30.0
 62
     5
 63
     7
421
 16777215
 74
     1
 91
        4
 64
     7
 65
   257
 75
     1
175
     1
 42
1.0
 92
        0
 66
   257
 43
1.0
 76
     1
 77
     6
 78
     2
 67
     7
 79
     5
170
     0
171
     0
290
     0
174
     0
 93
       13
 44
0.0
173
     0
291
     1
 45
0.0
1001
ACAD
1000
AcDbSavedByObjectVersion
1070
     0
  0
VISUALSTYLE
  5
2D
102
{ACAD_REACTORS
330
2A
102
}
330
2A
100
AcDbVisualStyle
  2
Gouraud
 70
     2
 71
     2
 72
     2
 73
     1
 90
        2
 40
-0.6
 41
30.0
 62
     5
 63
     7
421
 16777215
 74
     0
 91
        4
 64
     7
 65
   257
 75
     1
175
     1
 42
1.0
 92
        0
 66
     7
 43
1.0
 76
     1
 77
     6
 78
     2
 67
     7
 79
     5
170
     0
171
     0
290
     0
174
     0
 93
       13
 44
0.0
173
     0
291
     1
 45
0.0
1001
ACAD
1000
AcDbSavedByObjectVersion
1070
     0
  0
VISUALSTYLE
  5
2E
102
{ACAD_REACTORS
330
2A
102
}
330
2A
100
AcDbVisualStyle
  2
GouraudWithEdges
 70
     3
 71
     2
 72
     2
 73
     1
 90
        2
 40
-0.6
 41
30.0
 62
     5
 63
     7
421
 16777215
 74
     1
 91
        4
 64
     7
 65
   257
 75
     1
175
     1
 42
1.0
 92
        0
 66
   257
 43
1.0
 76
     1
 77
     6
 78
     2
 67
     7
 79
     5
170
     0
171
     0
290
     0
174
     0
 93
       13
 44
0.0
173
     0
291
     1
 45
0.0
1001
ACAD
1000
AcDbSavedByObjectVersion
1070
     0
  0
VISUALSTYLE
  5
38
102
{ACAD_REACTORS
330
2A
102
}
330
2A
100
AcDbVisualStyle
  2
Linepattern
 70
    14
 71
     2
 72
     2
 73
     0
 90
        0
 40
-0.6
 41
-30.0
 62
     5
 63
     7
421
 16777215
 74
     1
 91
        4
 64
     7
 65
   257
 75
     7
175
     7
 42
1.0
 92
        8
 66
     7
 43
1.0
 76
     1
 77
     6
 78
     2
 67
     7
 79
     5
170
     0
171
     0
290
     0
174
     0
 93
        1
 44
0.0
173
     0
291
     1
 45
0.0
1001
ACAD
1000
AcDbSavedByObjectVersion
1070
     0
  0
VISUALSTYLE
  5
33
102
{ACAD_REACTORS
330
2A
102
}
330
2A
100
AcDbVisualStyle
  2
Realistic
 70
     8
 71
     2
 72
     2
 73
     0
 90
        0
 40
-0.6
 41
-30.0
 62
     5
 63
     7
421
 16777215
 74
     1
 91
        0
 64
     7
 65
   257
 75
     1
175
     1
 42
1.0
 92
        8
 66
     8
424
  7895160
 43
1.0
 76
     1
 77
     6
 78
     2
 67
     7
 79
     5
170
     0
171
     0
290
     0
174
     0
 93
       13
 44
0.0
173
     0
291
     0
 45
0.0
1001
ACAD
1000
AcDbSavedByObjectVersion
1070
     0
  0
VISUALSTYLE
  5
37
102
{ACAD_REACTORS
330
2A
102
}
330
2A
100
AcDbVisualStyle
  2
Thicken
 70
    13
 71
     2
 72
     2
 73
     0
 90
        0
 40
-0.6
 41
-30.0
 62
     5
 63
     7
421
 16777215
 74
     1
 91
        4
 64
     7
 65
   257
 75
     1
175
     1
 42
1.0
 92
       12
 66
     7
 43
1.0
 76
     1
 77
     6
 78
     2
 67
     7
 79
     5
170
     0
171
     0
290
     0
174
     0
 93
        1
 44
0.0
173
     0
291
     1
 45
0.0
1001
ACAD
1000
AcDbSavedByObjectVersion
1070
     0
  0
ENDSEC
  0
EOF
