  0
SECTION
  2
HEADER
  9
$ACADVER
  1
AC1018
  9
$ACADMAINTVER
 70
     0
  9
$DWGCODEPAGE
  3
ANSI_1252
  9
$INSBASE
 10
0.0
 20
0.0
 30
0.0
  9
$EXTMIN
 10
1.000000000000000E+20
 20
1.000000000000000E+20
 30
1.000000000000000E+20
  9
$EXTMAX
 10
-1.000000000000000E+20
 20
-1.000000000000000E+20
 30
-1.000000000000000E+20
  9
$LIMMIN
 10
0.0
 20
0.0
  9
$LIMMAX
 10
12.0
 20
9.0
  9
$ORTHOMODE
 70
     0
  9
$REGENMODE
 70
     1
  9
$FILLMODE
 70
     1
  9
$QTEXTMODE
 70
     0
  9
$MIRRTEXT
 70
     1
  9
$LTSCALE
 40
1.0
  9
$ATTMODE
 70
     1
  9
$TEXTSIZE
 40
0.2
  9
$TRACEWID
 40
0.05
  9
$TEXTSTYLE
  7
Standard
  9
$CLAYER
  8
0
  9
$CELTYPE
  6
ByLayer
  9
$CECOLOR
 62
   256
  9
$CELTSCALE
 40
1.0
  9
$DISPSILH
 70
     0
  9
$DIMSCALE
 40
1.0
  9
$DIMASZ
 40
0.18
  9
$DIMEXO
 40
0.0625
  9
$DIMDLI
 40
0.38
  9
$DIMRND
 40
0.0
  9
$DIMDLE
 40
0.0
  9
$DIMEXE
 40
0.18
  9
$DIMTP
 40
0.0
  9
$DIMTM
 40
0.0
  9
$DIMTXT
 40
0.18
  9
$DIMCEN
 40
0.09
  9
$DIMTSZ
 40
0.0
  9
$DIMTOL
 70
     0
  9
$DIMLIM
 70
     0
  9
$DIMTIH
 70
     1
  9
$DIMTOH
 70
     1
  9
$DIMSE1
 70
     0
  9
$DIMSE2
 70
     0
  9
$DIMTAD
 70
     0
  9
$DIMZIN
 70
     0
  9
$DIMBLK
  1

  9
$DIMASO
 70
     1
  9
$DIMSHO
 70
     1
  9
$DIMPOST
  1

  9
$DIMAPOST
  1

  9
$DIMALT
 70
     0
  9
$DIMALTD
 70
     2
  9
$DIMALTF
 40
25.4
  9
$DIMLFAC
 40
1.0
  9
$DIMTOFL
 70
     0
  9
$DIMTVP
 40
0.0
  9
$DIMTIX
 70
     0
  9
$DIMSOXD
 70
     0
  9
$DIMSAH
 70
     0
  9
$DIMBLK1
  1

  9
$DIMBLK2
  1

  9
$DIMSTYLE
  2
Standard
  9
$DIMCLRD
 70
     0
  9
$DIMCLRE
 70
     0
  9
$DIMCLRT
 70
     0
  9
$DIMTFAC
 40
1.0
  9
$DIMGAP
 40
0.09
  9
$DIMJUST
 70
     0
  9
$DIMSD1
 70
     0
  9
$DIMSD2
 70
     0
  9
$DIMTOLJ
 70
     1
  9
$DIMTZIN
 70
     0
  9
$DIMALTZ
 70
     0
  9
$DIMALTTZ
 70
     0
  9
$DIMUPT
 70
     0
  9
$DIMDEC
 70
     4
  9
$DIMTDEC
 70
     4
  9
$DIMALTU
 70
     2
  9
$DIMALTTD
 70
     2
  9
$DIMTXSTY
  7
Standard
  9
$DIMAUNIT
 70
     0
  9
$DIMADEC
 70
     0
  9
$DIMALTRND
 40
0.0
  9
$DIMAZIN
 70
     0
  9
$DIMDSEP
 70
    46
  9
$DIMATFIT
 70
     3
  9
$DIMFRAC
 70
     0
  9
$DIMLDRBLK
  1

  9
$DIMLUNIT
 70
     2
  9
$DIMLWD
 70
    -2
  9
$DIMLWE
 70
    -2
  9
$DIMTMOVE
 70
     0
  9
$LUNITS
 70
     2
  9
$LUPREC
 70
     4
  9
$SKETCHINC
 40
0.1
  9
$FILLETRAD
 40
0.5
  9
$AUNITS
 70
     0
  9
$AUPREC
 70
     0
  9
$MENU
  1
.
  9
$ELEVATION
 40
0.0
  9
$PELEVATION
 40
0.0
  9
$THICKNESS
 40
0.0
  9
$LIMCHECK
 70
     0
  9
$CHAMFERA
 40
0.5
  9
$CHAMFERB
 40
0.5
  9
$CHAMFERC
 40
1.0
  9
$CHAMFERD
 40
0.0
  9
$SKPOLY
 70
     0
  9
$TDCREATE
 40
2456559.909116435
  9
$TDUCREATE
 40
2456559.825783102
  9
$TDUPDATE
 40
2456559.909116447
  9
$TDUUPDATE
 40
2456559.825783113
  9
$TDINDWG
 40
0.0000000116
  9
$TDUSRTIMER
 40
0.0000000116
  9
$USRTIMER
 70
     1
  9
$ANGBASE
 50
0.0
  9
$ANGDIR
 70
     0
  9
$PDMODE
 70
     0
  9
$PDSIZE
 40
0.0
  9
$PLINEWID
 40
0.0
  9
$SPLFRAME
 70
     0
  9
$SPLINETYPE
 70
     6
  9
$SPLINESEGS
 70
     8
  9
$HANDSEED
  5
9E
  9
$SURFTAB1
 70
     6
  9
$SURFTAB2
 70
     6
  9
$SURFTYPE
 70
     6
  9
$SURFU
 70
     6
  9
$SURFV
 70
     6
  9
$UCSBASE
  2

  9
$UCSNAME
  2

  9
$UCSORG
 10
0.0
 20
0.0
 30
0.0
  9
$UCSXDIR
 10
1.0
 20
0.0
 30
0.0
  9
$UCSYDIR
 10
0.0
 20
1.0
 30
0.0
  9
$UCSORTHOREF
  2

  9
$UCSORTHOVIEW
 70
     0
  9
$UCSORGTOP
 10
0.0
 20
0.0
 30
0.0
  9
$UCSORGBOTTOM
 10
0.0
 20
0.0
 30
0.0
  9
$UCSORGLEFT
 10
0.0
 20
0.0
 30
0.0
  9
$UCSORGRIGHT
 10
0.0
 20
0.0
 30
0.0
  9
$UCSORGFRONT
 10
0.0
 20
0.0
 30
0.0
  9
$UCSORGBACK
 10
0.0
 20
0.0
 30
0.0
  9
$PUCSBASE
  2

  9
$PUCSNAME
  2

  9
$PUCSORG
 10
0.0
 20
0.0
 30
0.0
  9
$PUCSXDIR
 10
1.0
 20
0.0
 30
0.0
  9
$PUCSYDIR
 10
0.0
 20
1.0
 30
0.0
  9
$PUCSORTHOREF
  2

  9
$PUCSORTHOVIEW
 70
     0
  9
$PUCSORGTOP
 10
0.0
 20
0.0
 30
0.0
  9
$PUCSORGBOTTOM
 10
0.0
 20
0.0
 30
0.0
  9
$PUCSORGLEFT
 10
0.0
 20
0.0
 30
0.0
  9
$PUCSORGRIGHT
 10
0.0
 20
0.0
 30
0.0
  9
$PUCSORGFRONT
 10
0.0
 20
0.0
 30
0.0
  9
$PUCSORGBACK
 10
0.0
 20
0.0
 30
0.0
  9
$USERI1
 70
     0
  9
$USERI2
 70
     0
  9
$USERI3
 70
     0
  9
$USERI4
 70
     0
  9
$USERI5
 70
     0
  9
$USERR1
 40
0.0
  9
$USERR2
 40
0.0
  9
$USERR3
 40
0.0
  9
$USERR4
 40
0.0
  9
$USERR5
 40
0.0
  9
$WORLDVIEW
 70
     1
  9
$SHADEDGE
 70
     3
  9
$SHADEDIF
 70
    70
  9
$TILEMODE
 70
     1
  9
$MAXACTVP
 70
    64
  9
$PINSBASE
 10
0.0
 20
0.0
 30
0.0
  9
$PLIMCHECK
 70
     0
  9
$PEXTMIN
 10
1.000000000000000E+20
 20
1.000000000000000E+20
 30
1.000000000000000E+20
  9
$PEXTMAX
 10
-1.000000000000000E+20
 20
-1.000000000000000E+20
 30
-1.000000000000000E+20
  9
$PLIMMIN
 10
0.0
 20
0.0
  9
$PLIMMAX
 10
12.0
 20
9.0
  9
$UNITMODE
 70
     0
  9
$VISRETAIN
 70
     1
  9
$PLINEGEN
 70
     0
  9
$PSLTSCALE
 70
     1
  9
$TREEDEPTH
 70
  3020
  9
$CMLSTYLE
  2
Standard
  9
$CMLJUST
 70
     0
  9
$CMLSCALE
 40
1.0
  9
$PROXYGRAPHICS
 70
     1
  9
$MEASUREMENT
 70
     0
  9
$CELWEIGHT
370
    -1
  9
$ENDCAPS
280
     0
  9
$JOINSTYLE
280
     0
  9
$LWDISPLAY
290
     0
  9
$INSUNITS
 70
    13
  9
$HYPERLINKBASE
  1

  9
$STYLESHEET
  1

  9
$XEDIT
290
     1
  9
$CEPSNTYPE
380
     0
  9
$PSTYLEMODE
290
     1
  9
$FINGERPRINTGUID
  2
{2359DB8A-7140-42A5-84FC-1257D8788C12}
  9
$VERSIONGUID
  2
{FAEB1C32-E019-11D5-929B-00C0DF256EC4}
  9
$EXTNAMES
290
     1
  9
$PSVPSCALE
 40
0.0
  9
$OLESTARTUP
290
     0
  9
$SORTENTS
280
   127
  9
$INDEXCTL
280
     0
  9
$HIDETEXT
280
     1
  9
$XCLIPFRAME
290
     0
  9
$HALOGAP
280
     0
  9
$OBSCOLOR
 70
   257
  9
$OBSLTYPE
280
     0
  9
$INTERSECTIONDISPLAY
280
     0
  9
$INTERSECTIONCOLOR
 70
   257
  9
$DIMASSOC
280
     2
  9
$PROJECTNAME
  1

  0
ENDSEC
  0
SECTION
  2
CLASSES
  0
CLASS
  1
ACDBDICTIONARYWDFLT
  2
AcDbDictionaryWithDefault
  3
ObjectDBX Classes
 90
        0
 91
        3
280
     0
281
     0
  0
CLASS
  1
VISUALSTYLE
  2
AcDbVisualStyle
  3
ObjectDBX Classes
 90
     4095
 91
        3
280
     0
281
     0
  0
CLASS
  1
SCALE
  2
AcDbScale
  3
ObjectDBX Classes
 90
     1153
 91
        3
280
     0
281
     0
  0
ENDSEC
  0
SECTION
  2
TABLES
  0
TABLE
  2
VPORT
  5
8
330
0
100
AcDbSymbolTable
 70
     1
  0
VPORT
  5
29
330
8
100
AcDbSymbolTableRecord
100
AcDbViewportTableRecord
  2
*Active
 70
     0
 10
0.0
 20
0.0
 11
1.0
 21
1.0
 12
10.42990654205607
 22
4.5
 13
0.0
 23
0.0
 14
0.5
 24
0.5
 15
0.5
 25
0.5
 16
0.0
 26
0.0
 36
1.0
 17
0.0
 27
0.0
 37
0.0
 40
9.0
 41
1.972972972850329
 42
50.0
 43
0.0
 44
0.0
 50
0.0
 51
0.0
 71
     0
 72
   100
 73
     1
 74
     3
 75
     0
 76
     0
 77
     0
 78
     0
281
     0
 65
     1
110
0.0
120
0.0
130
0.0
111
1.0
121
0.0
131
0.0
112
0.0
122
1.0
132
0.0
 79
     0
146
0.0
  0
ENDTAB
  0
TABLE
  2
LTYPE
  5
5
330
0
100
AcDbSymbolTable
 70
     1
  0
LTYPE
  5
14
330
5
100
AcDbSymbolTableRecord
100
AcDbLinetypeTableRecord
  2
ByBlock
 70
     0
  3

 72
    65
 73
     0
 40
0.0
  0
LTYPE
  5
15
330
5
100
AcDbSymbolTableRecord
100
AcDbLinetypeTableRecord
  2
ByLayer
 70
     0
  3

 72
    65
 73
     0
 40
0.0
  0
LTYPE
  5
16
330
5
100
AcDbSymbolTableRecord
100
AcDbLinetypeTableRecord
  2
Continuous
 70
     0
  3
Solid line
 72
    65
 73
     0
 40
0.0
  0
ENDTAB
  0
TABLE
  2
LAYER
  5
2
330
0
100
AcDbSymbolTable
 70
     2
  0
LAYER
  5
10
330
2
100
AcDbSymbolTableRecord
100
AcDbLayerTableRecord
  2
0
 70
     0
 62
     7
  6
Continuous
370
    -3
390
F
  0
LAYER
  5
5E
330
2
100
AcDbSymbolTableRecord
100
AcDbLayerTableRecord
  2
text2
 70
     0
 62
    16
420
  8388608
  6
Continuous
370
    -3
390
F
  0
ENDTAB
  0
TABLE
  2
STYLE
  5
3
330
0
100
AcDbSymbolTable
 70
     1
  0
STYLE
  5
11
330
3
100
AcDbSymbolTableRecord
100
AcDbTextStyleTableRecord
  2
Standard
 70
     0
 40
0.0
 41
1.0
 50
0.0
 71
     0
 42
0.2
  3
txt
  4

  0
ENDTAB
  0
TABLE
  2
VIEW
  5
6
330
0
100
AcDbSymbolTable
 70
     0
  0
ENDTAB
  0
TABLE
  2
UCS
  5
7
330
0
100
AcDbSymbolTable
 70
     0
  0
ENDTAB
  0
TABLE
  2
APPID
  5
9
330
0
100
AcDbSymbolTable
 70
     1
  0
APPID
  5
12
330
9
100
AcDbSymbolTableRecord
100
AcDbRegAppTableRecord
  2
ACAD
 70
     0
  0
ENDTAB
  0
TABLE
  2
DIMSTYLE
  5
A
330
0
100
AcDbSymbolTable
 70
     1
100
AcDbDimStyleTable
  0
DIMSTYLE
105
27
330
A
100
AcDbSymbolTableRecord
100
AcDbDimStyleTableRecord
  2
Standard
 70
     0
340
11
  0
ENDTAB
  0
TABLE
  2
BLOCK_RECORD
  5
1
330
0
100
AcDbSymbolTable
 70
     1
  0
BLOCK_RECORD
  5
1F
330
1
100
AcDbSymbolTableRecord
100
AcDbBlockTableRecord
  2
*Model_Space
340
22
  0
BLOCK_RECORD
  5
1B
330
1
100
AcDbSymbolTableRecord
100
AcDbBlockTableRecord
  2
*Paper_Space
340
1E
  0
BLOCK_RECORD
  5
23
330
1
100
AcDbSymbolTableRecord
100
AcDbBlockTableRecord
  2
*Paper_Space0
340
26
  0
ENDTAB
  0
ENDSEC
  0
SECTION
  2
BLOCKS
  0
BLOCK
  5
20
330
1F
100
AcDbEntity
  8
0
100
AcDbBlockBegin
  2
*Model_Space
 70
     0
 10
0.0
 20
0.0
 30
0.0
  3
*Model_Space
  1

  0
ENDBLK
  5
21
330
1F
100
AcDbEntity
  8
0
100
AcDbBlockEnd
  0
BLOCK
  5
1C
330
1B
100
AcDbEntity
 67
     1
  8
0
100
AcDbBlockBegin
  2
*Paper_Space
 70
     0
 10
0.0
 20
0.0
 30
0.0
  3
*Paper_Space
  1

  0
ENDBLK
  5
1D
330
1B
100
AcDbEntity
 67
     1
  8
0
100
AcDbBlockEnd
  0
BLOCK
  5
24
330
23
100
AcDbEntity
  8
0
100
AcDbBlockBegin
  2
*Paper_Space0
 70
     0
 10
0.0
 20
0.0
 30
0.0
  3
*Paper_Space0
  1

  0
ENDBLK
  5
25
330
23
100
AcDbEntity
  8
0
100
AcDbBlockEnd
  0
ENDSEC
  0
SECTION
  2
ENTITIES
  0
LWPOLYLINE
  5
5D
330
1F
100
AcDbEntity
  8
text2
100
AcDbPolyline
 90
        4
 70
     1
 43
0.0
 10
0.0
 20
0.0
 10
0.0
 20
1200.0
 10
2000.0
 20
1200.0
 10
2000.0
 20
0.0
  0
LWPOLYLINE
  5
5F
330
1F
100
AcDbEntity
  8
text2
100
AcDbPolyline
 90
       18
 70
     1
 43
0.0
 10
712.645
 20
92.55
 10
712.645
 20
88.979
 10
709.07
 20
85.405
 10
691.215
 20
85.405
 10
691.215
 20
78.265
 10
712.645
 20
78.265
 10
719.785
 20
85.405
 10
719.785
 20
121.12
 10
712.645
 20
121.12
 10
712.645
 20
117.55
 10
709.07
 20
121.12
 10
698.355
 20
121.12
 10
691.215
 20
113.98
 10
691.215
 20
99.69500000000001
 10
698.355
 20
92.55
 10
709.07
 20
92.55
 10
712.645
 20
96.121
 10
712.645
 20
92.55
  0
LWPOLYLINE
  5
60
330
1F
100
AcDbEntity
  8
text2
100
AcDbPolyline
 90
        9
 70
     1
 43
0.0
 10
709.07
 20
103.265
 10
709.07
 20
110.405
 10
705.5
 20
113.98
 10
701.9300000000001
 20
113.98
 10
698.355
 20
110.405
 10
698.355
 20
103.265
 10
701.9300000000001
 20
99.69500000000001
 10
705.5
 20
99.69500000000001
 10
709.07
 20
103.265
  0
LWPOLYLINE
  5
61
330
1F
100
AcDbEntity
  8
text2
100
AcDbPolyline
 90
       13
 70
     1
 43
0.0
 10
737.645
 20
92.55
 10
737.645
 20
142.55
 10
744.785
 20
142.55
 10
755.5
 20
131.835
 10
766.215
 20
142.55
 10
773.355
 20
142.55
 10
773.355
 20
92.55
 10
766.215
 20
92.55
 10
766.215
 20
131.835
 10
755.5
 20
121.12
 10
744.785
 20
131.835
 10
744.785
 20
92.55
 10
737.645
 20
92.55
  0
LWPOLYLINE
  5
62
330
1F
100
AcDbEntity
  8
text2
100
AcDbPolyline
 90
        7
 70
     1
 43
0.0
 10
787.645
 20
92.55
 10
787.645
 20
142.55
 10
816.215
 20
142.55
 10
823.355
 20
135.405
 10
823.355
 20
99.69500000000001
 10
816.215
 20
92.55
 10
787.645
 20
92.55
  0
LWPOLYLINE
  5
63
330
1F
100
AcDbEntity
  8
text2
100
AcDbPolyline
 90
        7
 70
     1
 43
0.0
 10
794.785
 20
99.69500000000001
 10
812.645
 20
99.69500000000001
 10
816.215
 20
103.265
 10
816.215
 20
131.835
 10
812.645
 20
135.405
 10
794.785
 20
135.405
 10
794.785
 20
99.69500000000001
  0
LWPOLYLINE
  5
64
330
1F
100
AcDbEntity
  8
text2
100
AcDbPolyline
 90
       13
 70
     1
 43
0.0
 10
837.645
 20
92.55
 10
837.645
 20
142.55
 10
866.215
 20
142.55
 10
873.355
 20
135.405
 10
873.355
 20
121.12
 10
866.215
 20
113.98
 10
855.5
 20
113.98
 10
873.355
 20
96.121
 10
873.355
 20
92.55
 10
866.215
 20
92.55
 10
844.785
 20
113.98
 10
844.785
 20
92.55
 10
837.645
 20
92.55
  0
LWPOLYLINE
  5
65
330
1F
100
AcDbEntity
  8
text2
100
AcDbPolyline
 90
        7
 70
     1
 43
0.0
 10
844.785
 20
121.12
 10
862.645
 20
121.12
 10
866.215
 20
124.695
 10
866.215
 20
131.835
 10
862.645
 20
135.405
 10
844.785
 20
135.405
 10
844.785
 20
121.12
  0
LWPOLYLINE
  5
66
330
1F
100
AcDbEntity
  8
text2
100
AcDbPolyline
 90
        9
 70
     1
 43
0.0
 10
891.215
 20
99.69500000000001
 10
891.215
 20
135.405
 10
898.355
 20
142.55
 10
912.645
 20
142.55
 10
919.785
 20
135.405
 10
919.785
 20
99.69500000000001
 10
912.645
 20
92.55
 10
898.355
 20
92.55
 10
891.215
 20
99.69500000000001
  0
LWPOLYLINE
  5
67
330
1F
100
AcDbEntity
  8
text2
100
AcDbPolyline
 90
        9
 70
     1
 43
0.0
 10
898.355
 20
103.265
 10
898.355
 20
131.835
 10
901.9300000000001
 20
135.405
 10
909.07
 20
135.405
 10
912.645
 20
131.835
 10
912.645
 20
103.265
 10
909.07
 20
99.69500000000001
 10
901.9300000000001
 20
99.69500000000001
 10
898.355
 20
103.265
  0
LWPOLYLINE
  5
68
330
1F
100
AcDbEntity
  8
text2
100
AcDbPolyline
 90
        9
 70
     1
 43
0.0
 10
941.215
 20
99.69500000000001
 10
941.215
 20
135.405
 10
948.355
 20
142.55
 10
962.645
 20
142.55
 10
969.785
 20
135.405
 10
969.785
 20
99.69500000000001
 10
962.645
 20
92.55
 10
948.355
 20
92.55
 10
941.215
 20
99.69500000000001
  0
LWPOLYLINE
  5
69
330
1F
100
AcDbEntity
  8
text2
100
AcDbPolyline
 90
        9
 70
     1
 43
0.0
 10
948.355
 20
103.265
 10
948.355
 20
131.835
 10
951.9300000000001
 20
135.405
 10
959.07
 20
135.405
 10
962.645
 20
131.835
 10
962.645
 20
103.265
 10
959.07
 20
99.69500000000001
 10
951.9300000000001
 20
99.69500000000001
 10
948.355
 20
103.265
  0
LWPOLYLINE
  5
6A
330
1F
100
AcDbEntity
  8
text2
100
AcDbPolyline
 90
       11
 70
     1
 43
0.0
 10
994.785
 20
92.55
 10
994.785
 20
99.69500000000001
 10
1001.93
 20
99.69500000000001
 10
1001.93
 20
135.405
 10
994.785
 20
135.405
 10
1001.93
 20
142.55
 10
1009.07
 20
142.55
 10
1009.07
 20
99.69500000000001
 10
1016.215
 20
99.69500000000001
 10
1016.215
 20
92.55
 10
994.785
 20
92.55
  0
LWPOLYLINE
  5
6B
330
1F
100
AcDbEntity
  8
text2
100
AcDbPolyline
 90
       19
 70
     1
 43
0.0
 10
1037.645
 20
99.69500000000001
 10
1044.785
 20
103.265
 10
1048.355
 20
99.69500000000001
 10
1062.645
 20
99.69500000000001
 10
1066.215
 20
103.265
 10
1066.215
 20
113.98
 10
1062.645
 20
117.55
 10
1037.645
 20
117.55
 10
1037.645
 20
142.55
 10
1073.355
 20
142.55
 10
1073.355
 20
135.405
 10
1044.785
 20
135.405
 10
1044.785
 20
124.695
 10
1066.215
 20
124.695
 10
1073.355
 20
117.55
 10
1073.355
 20
99.69500000000001
 10
1066.215
 20
92.55
 10
1044.785
 20
92.55
 10
1037.645
 20
99.69500000000001
  0
LWPOLYLINE
  5
6C
330
1F
100
AcDbEntity
  8
text2
100
AcDbPolyline
 90
       74
 70
     1
 43
0.0
 10
626.9
 20
135.0
 10
627.3000000000001
 20
131.8
 10
627.3000000000001
 20
126.2
 10
625.3000000000001
 20
119.8
 10
622.1
 20
113.8
 10
617.7
 20
108.2
 10
612.1
 20
103.0
 10
605.3000000000001
 20
97.8
 10
597.3000000000001
 20
93.8
 10
588.5
 20
89.8
 10
578.9
 20
86.60000000000001
 10
568.5
 20
84.2
 10
557.7
 20
82.60000000000001
 10
546.1
 20
81.4
 10
536.1
 20
81.4
 10
529.7
 20
81.8
 10
523.3
 20
82.2
 10
516.9
 20
82.60000000000001
 10
510.9
 20
83.8
 10
504.9
 20
85.0
 10
498.9
 20
86.2
 10
493.3
 20
87.8
 10
488.1
 20
89.4
 10
482.9
 20
91.4
 10
478.1
 20
93.4
 10
473.3
 20
95.8
 10
469.3
 20
97.8
 10
473.3
 20
96.2
 10
476.9
 20
94.60000000000001
 10
480.9
 20
93.0
 10
485.3
 20
91.4
 10
489.3
 20
90.2
 10
493.7
 20
89.4
 10
498.5
 20
88.2
 10
502.9
 20
87.4
 10
507.7
 20
87.0
 10
512.9
 20
86.60000000000001
 10
518.1
 20
86.2
 10
533.3
 20
86.2
 10
544.9
 20
87.4
 10
555.7
 20
89.0
 10
566.1
 20
91.4
 10
575.7
 20
94.60000000000001
 10
584.5
 20
98.60000000000001
 10
592.5
 20
102.6
 10
599.3000000000001
 20
107.4
 10
604.9
 20
113.0
 10
609.3000000000001
 20
118.6
 10
612.5
 20
124.6
 10
614.5
 20
131.0
 10
614.9
 20
136.2
 10
614.5
 20
139.4
 10
614.1
 20
142.2
 10
613.7
 20
145.0
 10
612.9
 20
147.8
 10
611.7
 20
150.6
 10
610.1
 20
153.4
 10
608.5
 20
155.8
 10
606.5
 20
158.2
 10
604.5
 20
160.6
 10
601.7
 20
163.0
 10
598.9
 20
165.0
 10
595.7
 20
167.4
 10
599.7
 20
165.0
 10
604.1
 20
162.6
 10
607.7
 20
160.2
 10
611.3000000000001
 20
157.4
 10
614.9
 20
154.6
 10
617.7
 20
151.4
 10
620.5
 20
148.2
 10
622.9
 20
145.4
 10
624.5
 20
141.8
 10
626.1
 20
138.6
 10
626.9
 20
135.0
  0
LWPOLYLINE
  5
6D
330
1F
100
AcDbEntity
  8
text2
100
AcDbPolyline
 90
       51
 70
     1
 43
0.0
 10
525.5
 20
103.6
 10
523.7
 20
103.8
 10
520.5
 20
104.2
 10
514.1
 20
105.4
 10
506.9
 20
107.0
 10
500.1
 20
109.4
 10
493.7
 20
112.2
 10
488.1
 20
115.4
 10
482.9
 20
119.0
 10
478.1
 20
122.6
 10
474.5
 20
126.6
 10
471.3
 20
131.0
 10
468.9
 20
135.0
 10
467.7
 20
139.8
 10
467.3
 20
144.2
 10
467.7
 20
147.8
 10
468.5
 20
151.8
 10
469.3
 20
153.8
 10
470.1
 20
155.4
 10
473.7
 20
160.2
 10
475.3
 20
161.4
 10
477.3
 20
162.6
 10
478.9
 20
163.8
 10
483.7
 20
166.2
 10
480.5
 20
165.0
 10
474.9
 20
162.6
 10
472.1
 20
161.0
 10
469.7
 20
159.0
 10
467.3
 20
157.4
 10
463.3
 20
153.4
 10
461.7
 20
151.4
 10
460.5
 20
149.0
 10
459.7
 20
147.0
 10
458.9
 20
144.6
 10
458.5
 20
140.6
 10
458.9
 20
136.2
 10
460.5
 20
131.8
 10
462.5
 20
127.4
 10
465.7
 20
123.0
 10
469.3
 20
119.0
 10
474.1
 20
115.4
 10
479.3
 20
111.8
 10
484.9
 20
108.6
 10
491.3
 20
106.2
 10
498.1
 20
103.8
 10
505.3
 20
101.8
 10
511.7
 20
100.6
 10
516.1
 20
100.2
 10
520.1
 20
99.8
 10
525.5
 20
99.8
 10
525.5
 20
103.6
  0
LWPOLYLINE
  5
6E
330
1F
100
AcDbEntity
  8
text2
100
AcDbPolyline
 90
       95
 70
     1
 43
0.0
 10
525.5
 20
164.8
 10
523.3
 20
167.0
 10
522.1
 20
167.8
 10
520.5
 20
169.0
 10
518.5
 20
169.8
 10
516.9
 20
170.6
 10
515.3
 20
171.0
 10
511.3
 20
171.8
 10
503.3
 20
171.8
 10
499.3
 20
171.0
 10
496.9
 20
170.2
 10
497.3
 20
170.2
 10
498.9
 20
170.6
 10
500.9
 20
170.6
 10
502.5
 20
171.0
 10
504.1
 20
171.0
 10
505.7
 20
170.6
 10
507.3
 20
170.6
 10
508.9
 20
170.2
 10
510.1
 20
169.8
 10
511.7
 20
169.0
 10
512.9
 20
168.6
 10
514.5
 20
167.8
 10
516.9
 20
166.2
 10
520.5
 20
162.6
 10
522.1
 20
160.2
 10
522.9
 20
158.6
 10
523.7
 20
157.4
 10
524.5
 20
155.8
 10
524.5
 20
154.6
 10
517.3
 20
153.8
 10
514.1
 20
153.0
 10
510.5
 20
152.2
 10
507.3
 20
151.4
 10
504.1
 20
150.2
 10
500.9
 20
149.4
 10
498.1
 20
148.2
 10
495.3
 20
146.6
 10
492.5
 20
145.4
 10
490.1
 20
143.8
 10
492.1
 20
144.6
 10
494.5
 20
145.8
 10
496.9
 20
146.6
 10
498.9
 20
147.4
 10
501.3
 20
147.8
 10
504.1
 20
148.6
 10
506.5
 20
149.0
 10
512.1
 20
149.8
 10
514.9
 20
149.8
 10
517.7
 20
150.2
 10
523.3
 20
150.6
 10
525.3
 20
150.6
 10
524.9
 20
149.8
 10
523.7
 20
144.6
 10
523.3
 20
139.4
 10
523.3
 20
133.8
 10
523.7
 20
130.6
 10
521.3
 20
131.8
 10
519.3
 20
132.2
 10
517.7
 20
133.0
 10
515.7
 20
133.0
 10
514.1
 20
133.4
 10
512.1
 20
133.4
 10
510.1
 20
133.0
 10
508.5
 20
133.0
 10
506.5
 20
132.2
 10
504.9
 20
131.8
 10
502.9
 20
131.0
 10
501.3
 20
130.2
 10
499.3
 20
129.0
 10
497.7
 20
128.2
 10
495.7
 20
127.0
 10
492.9
 20
124.2
 10
494.1
 20
125.0
 10
495.7
 20
126.2
 10
497.3
 20
127.0
 10
498.5
 20
127.8
 10
501.7
 20
128.6
 10
502.9
 20
129.0
 10
504.5
 20
129.4
 10
506.1
 20
129.4
 10
507.7
 20
129.8
 10
509.3
 20
129.4
 10
510.5
 20
129.4
 10
512.1
 20
129.0
 10
513.7
 20
129.0
 10
515.3
 20
128.6
 10
516.5
 20
128.2
 10
518.9
 20
126.6
 10
520.1
 20
126.2
 10
521.3
 20
125.0
 10
523.7
 20
123.4
 10
524.5
 20
122.2
 10
525.5
 20
121.2
 10
525.5
 20
164.8
  0
LWPOLYLINE
  5
6F
330
1F
100
AcDbEntity
  8
text2
100
AcDbPolyline
 90
      142
 70
     1
 43
0.0
 10
592.5
 20
159.8
 10
590.5
 20
160.2
 10
579.3000000000001
 20
160.2
 10
574.5
 20
159.4
 10
571.7
 20
158.6
 10
569.3000000000001
 20
158.2
 10
566.9
 20
157.4
 10
564.5
 20
156.2
 10
562.1
 20
155.4
 10
560.1
 20
154.2
 10
557.3000000000001
 20
152.6
 10
554.9
 20
151.0
 10
553.3000000000001
 20
151.4
 10
548.1
 20
153.0
 10
542.1
 20
154.2
 10
536.5
 20
154.6
 10
536.9
 20
156.6
 10
540.9
 20
165.4
 10
543.3
 20
168.6
 10
546.9
 20
172.2
 10
548.5
 20
173.4
 10
549.7
 20
174.2
 10
551.3000000000001
 20
175.4
 10
552.9
 20
176.2
 10
556.9
 20
177.8
 10
558.9
 20
178.2
 10
560.9
 20
179.0
 10
562.9
 20
179.0
 10
565.3000000000001
 20
179.4
 10
567.7
 20
179.4
 10
564.9
 20
179.8
 10
557.3000000000001
 20
179.8
 10
554.9
 20
179.4
 10
547.7
 20
177.0
 10
542.9
 20
174.6
 10
540.5
 20
173.0
 10
538.5
 20
171.4
 10
534.9
 20
168.2
 10
531.7
 20
163.8
 10
529.3
 20
160.2
 10
528.5
 20
161.0
 10
527.7
 20
162.6
 10
525.5
 20
164.8
 10
525.5
 20
121.2
 10
525.7
 20
121.0
 10
526.5
 20
119.8
 10
526.9
 20
119.4
 10
527.3
 20
118.2
 10
529.7
 20
113.4
 10
532.5
 20
109.8
 10
534.1
 20
107.4
 10
538.1
 20
103.4
 10
538.9
 20
103.0
 10
530.5
 20
103.0
 10
527.3
 20
103.4
 10
525.5
 20
103.6
 10
525.5
 20
99.8
 10
528.1
 20
99.8
 10
540.1
 20
101.0
 10
540.9
 20
101.4
 10
542.5
 20
100.2
 10
544.5
 20
98.60000000000001
 10
546.9
 20
97.8
 10
549.3000000000001
 20
96.60000000000001
 10
554.1
 20
95.0
 10
556.9
 20
94.60000000000001
 10
559.3000000000001
 20
94.60000000000001
 10
555.3000000000001
 20
95.4
 10
551.3000000000001
 20
97.0
 10
549.7
 20
97.8
 10
548.1
 20
99.0
 10
545.7
 20
101.4
 10
545.3
 20
102.2
 10
547.3000000000001
 20
102.6
 10
550.5
 20
103.8
 10
553.7
 20
104.6
 10
556.5
 20
105.8
 10
554.1
 20
105.0
 10
551.3000000000001
 20
104.2
 10
545.7
 20
103.4
 10
544.9
 20
103.4
 10
544.5
 20
103.8
 10
543.3
 20
107.0
 10
542.9
 20
110.2
 10
542.5
 20
113.8
 10
542.9
 20
117.8
 10
543.7
 20
121.8
 10
544.9
 20
125.8
 10
546.5
 20
129.8
 10
548.5
 20
133.8
 10
550.9
 20
137.8
 10
553.3000000000001
 20
141.4
 10
555.3000000000001
 20
143.8
 10
556.1
 20
143.0
 10
560.1
 20
140.6
 10
563.3000000000001
 20
137.8
 10
566.1
 20
134.6
 10
568.1
 20
131.4
 10
569.3000000000001
 20
127.8
 10
569.7
 20
125.0
 10
569.7
 20
123.4
 10
569.3000000000001
 20
121.4
 10
569.3000000000001
 20
119.8
 10
568.9
 20
118.6
 10
567.3000000000001
 20
115.4
 10
566.5
 20
114.2
 10
565.7
 20
112.6
 10
564.5
 20
111.4
 10
562.9
 20
110.2
 10
561.3000000000001
 20
108.6
 10
559.7
 20
107.4
 10
562.1
 20
109.0
 10
564.1
 20
110.2
 10
566.1
 20
112.2
 10
568.1
 20
113.8
 10
569.7
 20
115.4
 10
572.9
 20
119.4
 10
574.1
 20
121.0
 10
575.7
 20
125.0
 10
576.1
 20
127.0
 10
576.1
 20
129.0
 10
575.7
 20
132.2
 10
574.5
 20
135.8
 10
572.5
 20
139.0
 10
570.1
 20
142.2
 10
566.5
 20
145.0
 10
562.9
 20
147.4
 10
560.5
 20
148.6
 10
563.7
 20
151.0
 10
566.1
 20
152.6
 10
568.1
 20
153.8
 10
570.1
 20
154.6
 10
572.1
 20
155.8
 10
573.7
 20
156.6
 10
575.7
 20
157.0
 10
577.7
 20
157.8
 10
579.7
 20
158.2
 10
581.7
 20
159.0
 10
583.3000000000001
 20
159.4
 10
585.3000000000001
 20
159.4
 10
587.3000000000001
 20
159.8
 10
592.5
 20
159.8
  0
LWPOLYLINE
  5
70
330
1F
100
AcDbEntity
  8
text2
100
AcDbPolyline
 90
       26
 70
     1
 43
0.0
 10
1667.5
 20
67.5
 10
1590.1
 20
67.5
 10
1585.7
 20
68.2
 10
1581.0
 20
70.60000000000001
 10
1577.4
 20
74.2
 10
1575.0
 20
78.9
 10
1574.2
 20
84.0
 10
1575.0
 20
89.10000000000001
 10
1577.4
 20
93.8
 10
1581.0
 20
97.4
 10
1585.7
 20
99.8
 10
1590.1
 20
100.5
 10
1599.3
 20
100.5
 10
1634.5
 20
123.0
 10
1634.5
 20
132.3
 10
1635.2
 20
136.7
 10
1637.6
 20
141.4
 10
1641.2
 20
145.0
 10
1645.9
 20
147.4
 10
1651.0
 20
148.2
 10
1656.1
 20
147.4
 10
1660.8
 20
145.0
 10
1664.4
 20
141.4
 10
1666.8
 20
136.7
 10
1667.5
 20
132.3
 10
1667.5
 20
115.9
  0
LWPOLYLINE
  5
71
330
1F
100
AcDbEntity
  8
text2
100
AcDbPolyline
 90
       26
 70
     1
 43
0.0
 10
1807.5
 20
115.9
 10
1807.5
 20
132.3
 10
1808.2
 20
136.7
 10
1810.6
 20
141.4
 10
1814.2
 20
145.0
 10
1818.9
 20
147.4
 10
1824.0
 20
148.2
 10
1829.1
 20
147.4
 10
1833.8
 20
145.0
 10
1837.4
 20
141.4
 10
1839.8
 20
136.7
 10
1840.5
 20
132.3
 10
1840.5
 20
123.0
 10
1875.7
 20
100.5
 10
1884.9
 20
100.5
 10
1889.3
 20
99.8
 10
1894.0
 20
97.4
 10
1897.6
 20
93.8
 10
1900.0
 20
89.10000000000001
 10
1900.8
 20
84.0
 10
1900.0
 20
78.9
 10
1897.6
 20
74.2
 10
1894.0
 20
70.60000000000001
 10
1889.3
 20
68.2
 10
1884.9
 20
67.5
 10
1807.5
 20
67.5
  0
LWPOLYLINE
  5
72
330
1F
100
AcDbEntity
  8
text2
100
AcDbPolyline
 90
        8
 70
     1
 43
0.0
 10
1766.5
 20
67.5
 10
1708.5
 20
67.5
 10
1708.5
 20
136.3
 10
1721.0
 20
166.3
 10
1721.0
 20
175.5
 10
1754.0
 20
175.5
 10
1754.0
 20
166.3
 10
1766.5
 20
136.3
  0
LWPOLYLINE
  5
73
330
1F
100
AcDbEntity
  8
text2
100
AcDbPolyline
 90
       26
 70
     1
 43
0.0
 10
67.5
 20
796.3000000000001
 10
67.5
 20
873.7
 10
68.2
 20
878.1
 10
70.60000000000001
 20
882.8000000000001
 10
74.2
 20
886.4
 10
78.9
 20
888.8000000000001
 10
84.0
 20
889.6
 10
89.10000000000001
 20
888.8000000000001
 10
93.8
 20
886.4
 10
97.4
 20
882.8000000000001
 10
99.8
 20
878.1
 10
100.5
 20
873.7
 10
100.5
 20
864.5
 10
123.0
 20
829.3000000000001
 10
132.3
 20
829.3000000000001
 10
136.7
 20
828.6
 10
141.4
 20
826.2
 10
145.0
 20
822.6
 10
147.4
 20
817.9
 10
148.2
 20
812.8000000000001
 10
147.4
 20
807.7
 10
145.0
 20
803.0
 10
141.4
 20
799.4
 10
136.7
 20
797.0
 10
132.3
 20
796.3000000000001
 10
115.9
 20
796.3000000000001
  0
LWPOLYLINE
  5
74
330
1F
100
AcDbEntity
  8
text2
100
AcDbPolyline
 90
       26
 70
     1
 43
0.0
 10
115.9
 20
656.3000000000001
 10
132.3
 20
656.3000000000001
 10
136.7
 20
655.6
 10
141.4
 20
653.2
 10
145.0
 20
649.6
 10
147.4
 20
644.9
 10
148.2
 20
639.8000000000001
 10
147.4
 20
634.7
 10
145.0
 20
630.0
 10
141.4
 20
626.4
 10
136.7
 20
624.0
 10
132.3
 20
623.3000000000001
 10
123.0
 20
623.3000000000001
 10
100.5
 20
588.1
 10
100.5
 20
578.9
 10
99.8
 20
574.5
 10
97.4
 20
569.8000000000001
 10
93.8
 20
566.2
 10
89.10000000000001
 20
563.8000000000001
 10
84.0
 20
563.0
 10
78.9
 20
563.8000000000001
 10
74.2
 20
566.2
 10
70.60000000000001
 20
569.8000000000001
 10
68.2
 20
574.5
 10
67.5
 20
578.9
 10
67.5
 20
656.3000000000001
  0
LWPOLYLINE
  5
75
330
1F
100
AcDbEntity
  8
text2
100
AcDbPolyline
 90
        8
 70
     1
 43
0.0
 10
67.5
 20
697.3000000000001
 10
67.5
 20
755.3000000000001
 10
136.3
 20
755.3000000000001
 10
166.3
 20
742.8000000000001
 10
175.5
 20
742.8000000000001
 10
175.5
 20
709.8000000000001
 10
166.3
 20
709.8000000000001
 10
136.3
 20
697.3000000000001
  0
LWPOLYLINE
  5
76
330
1F
100
AcDbEntity
  8
text2
100
AcDbPolyline
 90
       11
 70
     1
 43
0.0
 10
153.0
 20
1062.43
 10
153.0
 20
1069.575
 10
160.145
 20
1069.575
 10
160.145
 20
1105.285
 10
153.0
 20
1105.285
 10
160.145
 20
1112.43
 10
167.285
 20
1112.43
 10
167.285
 20
1069.575
 10
174.43
 20
1069.575
 10
174.43
 20
1062.43
 10
153.0
 20
1062.43
  0
LWPOLYLINE
  5
77
330
1F
100
AcDbEntity
  8
text2
100
AcDbPolyline
 90
        7
 70
     1
 43
0.0
 10
103.0
 20
1091.0
 10
120.86
 20
1091.0
 10
124.43
 20
1094.575
 10
124.43
 20
1101.715
 10
120.86
 20
1105.285
 10
103.0
 20
1105.285
 10
103.0
 20
1091.0
  0
LWPOLYLINE
  5
78
330
1F
100
AcDbEntity
  8
text2
100
AcDbPolyline
 90
        9
 70
     1
 43
0.0
 10
95.86
 20
1062.43
 10
95.86
 20
1112.43
 10
124.43
 20
1112.43
 10
131.57
 20
1105.285
 10
131.57
 20
1091.0
 10
124.43
 20
1083.86
 10
103.0
 20
1083.86
 10
103.0
 20
1062.43
 10
95.86
 20
1062.43
  0
LWPOLYLINE
  5
79
330
1F
100
AcDbEntity
  8
text2
100
AcDbPolyline
 90
       11
 70
     1
 43
0.0
 10
282.0
 20
1001.0
 10
282.0
 20
1004.573
 10
285.572
 20
1004.573
 10
285.572
 20
1022.428
 10
282.0
 20
1022.428
 10
285.572
 20
1026.0
 10
289.142
 20
1026.0
 10
289.142
 20
1004.573
 10
292.714
 20
1004.573
 10
292.714
 20
1001.0
 10
282.0
 20
1001.0
  0
LWPOLYLINE
  5
7A
330
1F
100
AcDbEntity
  8
text2
100
AcDbPolyline
 90
        9
 70
     1
 43
0.0
 10
1699.86
 20
1066.57
 10
1699.86
 20
1116.57
 10
1728.43
 20
1116.57
 10
1735.57
 20
1109.425
 10
1735.57
 20
1095.14
 10
1728.43
 20
1088.0
 10
1707.0
 20
1088.0
 10
1707.0
 20
1066.57
 10
1699.86
 20
1066.57
  0
LWPOLYLINE
  5
7B
330
1F
100
AcDbEntity
  8
text2
100
AcDbPolyline
 90
        7
 70
     1
 43
0.0
 10
1707.0
 20
1095.14
 10
1724.86
 20
1095.14
 10
1728.43
 20
1098.715
 10
1728.43
 20
1105.855
 10
1724.86
 20
1109.425
 10
1707.0
 20
1109.425
 10
1707.0
 20
1095.14
  0
LWPOLYLINE
  5
7C
330
1F
100
AcDbEntity
  8
text2
100
AcDbPolyline
 90
       16
 70
     1
 43
0.0
 10
1749.86
 20
1066.57
 10
1749.86
 20
1077.285
 10
1778.43
 20
1098.715
 10
1778.43
 20
1105.855
 10
1774.86
 20
1109.425
 10
1760.57
 20
1109.425
 10
1757.0
 20
1105.855
 10
1749.86
 20
1109.425
 10
1757.0
 20
1116.57
 10
1778.43
 20
1116.57
 10
1785.57
 20
1109.425
 10
1785.57
 20
1095.14
 10
1757.0
 20
1073.715
 10
1785.57
 20
1073.715
 10
1785.57
 20
1066.57
 10
1749.86
 20
1066.57
  0
LWPOLYLINE
  5
7D
330
1F
100
AcDbEntity
  8
text2
100
AcDbPolyline
 90
       11
 70
     1
 43
0.0
 10
1768.715
 20
1018.142
 10
1768.715
 20
1043.142
 10
1784.785
 20
1043.142
 10
1784.785
 20
1039.57
 10
1772.286
 20
1039.57
 10
1772.286
 20
1032.427
 10
1779.428
 20
1032.427
 10
1779.428
 20
1028.857
 10
1772.286
 20
1028.857
 10
1772.286
 20
1018.142
 10
1768.715
 20
1018.142
  0
LWPOLYLINE
  5
7E
330
1F
100
AcDbEntity
  8
text2
100
AcDbPolyline
 90
       13
 70
     1
 43
0.0
 10
1747.286
 20
1018.142
 10
1747.286
 20
1021.715
 10
1750.858
 20
1021.715
 10
1750.858
 20
1039.57
 10
1747.286
 20
1039.57
 10
1747.286
 20
1043.142
 10
1758.0
 20
1043.142
 10
1758.0
 20
1039.57
 10
1754.428
 20
1039.57
 10
1754.428
 20
1021.715
 10
1758.0
 20
1021.715
 10
1758.0
 20
1018.142
 10
1747.286
 20
1018.142
  0
LWPOLYLINE
  5
7F
330
1F
100
AcDbEntity
  8
text2
100
AcDbPolyline
 90
       11
 70
     1
 43
0.0
 10
1876.643
 20
1092.285
 10
1876.643
 20
1095.858
 10
1880.215
 20
1095.858
 10
1880.215
 20
1113.713
 10
1876.643
 20
1113.713
 10
1880.215
 20
1117.285
 10
1883.785
 20
1117.285
 10
1883.785
 20
1095.858
 10
1887.357
 20
1095.858
 10
1887.357
 20
1092.285
 10
1876.643
 20
1092.285
  0
LWPOLYLINE
  5
80
330
1F
100
AcDbEntity
  8
text2
100
AcDbPolyline
 90
        9
 70
     1
 43
0.0
 10
78.43
 20
476.855
 10
78.43
 20
526.855
 10
107.0
 20
526.855
 10
114.14
 20
519.71
 10
114.14
 20
505.425
 10
107.0
 20
498.285
 10
85.57000000000001
 20
498.285
 10
85.57000000000001
 20
476.855
 10
78.43
 20
476.855
  0
LWPOLYLINE
  5
81
330
1F
100
AcDbEntity
  8
text2
100
AcDbPolyline
 90
        7
 70
     1
 43
0.0
 10
85.57000000000001
 20
505.425
 10
103.43
 20
505.425
 10
107.0
 20
509.0
 10
107.0
 20
516.14
 10
103.43
 20
519.71
 10
85.57000000000001
 20
519.71
 10
85.57000000000001
 20
505.425
  0
LWPOLYLINE
  5
82
330
1F
100
AcDbEntity
  8
text2
100
AcDbPolyline
 90
       12
 70
     1
 43
0.0
 10
149.855
 20
476.855
 10
149.855
 20
494.71
 10
128.43
 20
494.71
 10
128.43
 20
501.855
 10
149.855
 20
526.855
 10
157.0
 20
526.855
 10
157.0
 20
501.855
 10
164.14
 20
501.855
 10
164.14
 20
494.71
 10
157.0
 20
494.71
 10
157.0
 20
476.855
 10
149.855
 20
476.855
  0
LWPOLYLINE
  5
83
330
1F
100
AcDbEntity
  8
text2
100
AcDbPolyline
 90
        4
 70
     1
 43
0.0
 10
149.855
 20
501.855
 10
135.57
 20
501.855
 10
149.855
 20
516.14
 10
149.855
 20
501.855
  0
LWPOLYLINE
  5
84
330
1F
100
AcDbEntity
  8
text2
100
AcDbPolyline
 90
        9
 70
     1
 43
0.0
 10
108.784
 20
435.0
 10
115.93
 20
435.0
 10
117.714
 20
436.784
 10
117.714
 20
451.07
 10
115.93
 20
452.855
 10
108.784
 20
452.855
 10
107.0
 20
451.07
 10
107.0
 20
436.784
 10
108.784
 20
435.0
  0
LWPOLYLINE
  5
85
330
1F
100
AcDbEntity
  8
text2
100
AcDbPolyline
 90
        9
 70
     1
 43
0.0
 10
103.429
 20
435.0
 10
103.429
 20
452.855
 10
107.0
 20
456.427
 10
117.714
 20
456.427
 10
121.284
 20
452.855
 10
121.284
 20
435.0
 10
117.714
 20
431.427
 10
107.0
 20
431.427
 10
103.429
 20
435.0
  0
LWPOLYLINE
  5
86
330
1F
100
AcDbEntity
  8
text2
100
AcDbPolyline
 90
        7
 70
     1
 43
0.0
 10
78.43
 20
431.427
 10
78.43
 20
456.427
 10
82.0
 20
456.427
 10
82.0
 20
435.0
 10
96.285
 20
435.0
 10
96.285
 20
431.427
 10
78.43
 20
431.427
  0
LWPOLYLINE
  5
87
330
1F
100
AcDbEntity
  8
text2
100
AcDbPolyline
 90
       13
 70
     1
 43
0.0
 10
1454.073
 20
80.285
 10
1454.073
 20
105.285
 10
1468.357
 20
105.285
 10
1471.928
 20
101.713
 10
1471.928
 20
94.57000000000001
 10
1468.357
 20
91.0
 10
1463.0
 20
91.0
 10
1471.928
 20
82.071
 10
1471.928
 20
80.285
 10
1468.357
 20
80.285
 10
1457.643
 20
91.0
 10
1457.643
 20
80.285
 10
1454.073
 20
80.285
  0
LWPOLYLINE
  5
88
330
1F
100
AcDbEntity
  8
text2
100
AcDbPolyline
 90
        7
 70
     1
 43
0.0
 10
1457.643
 20
94.57000000000001
 10
1466.572
 20
94.57000000000001
 10
1468.357
 20
96.357
 10
1468.357
 20
99.928
 10
1466.572
 20
101.713
 10
1457.643
 20
101.713
 10
1457.643
 20
94.57000000000001
  0
LWPOLYLINE
  5
89
330
1F
100
AcDbEntity
  8
text2
100
AcDbPolyline
 90
       11
 70
     1
 43
0.0
 10
1479.072
 20
80.285
 10
1479.072
 20
105.285
 10
1495.142
 20
105.285
 10
1495.142
 20
101.713
 10
1482.643
 20
101.713
 10
1482.643
 20
94.57000000000001
 10
1489.785
 20
94.57000000000001
 10
1489.785
 20
91.0
 10
1482.643
 20
91.0
 10
1482.643
 20
80.285
 10
1479.072
 20
80.285
  0
LWPOLYLINE
  5
8A
330
1F
100
AcDbEntity
  8
text2
100
AcDbPolyline
 90
       11
 70
     1
 43
0.0
 10
1532.643
 20
80.285
 10
1532.643
 20
83.858
 10
1536.215
 20
83.858
 10
1536.215
 20
101.713
 10
1532.643
 20
101.713
 10
1536.215
 20
105.285
 10
1539.785
 20
105.285
 10
1539.785
 20
83.858
 10
1543.357
 20
83.858
 10
1543.357
 20
80.285
 10
1532.643
 20
80.285
  0
LWPOLYLINE
  5
8B
330
1F
100
AcDbEntity
  8
text2
100
AcDbPolyline
 90
        9
 70
     1
 43
0.0
 10
1456.0
 20
130.72
 10
1456.0
 20
180.72
 10
1484.57
 20
180.72
 10
1491.71
 20
173.575
 10
1491.71
 20
159.29
 10
1484.57
 20
152.15
 10
1463.14
 20
152.15
 10
1463.14
 20
130.72
 10
1456.0
 20
130.72
  0
LWPOLYLINE
  5
8C
330
1F
100
AcDbEntity
  8
text2
100
AcDbPolyline
 90
        7
 70
     1
 43
0.0
 10
1463.14
 20
159.29
 10
1481.0
 20
159.29
 10
1484.57
 20
162.865
 10
1484.57
 20
170.005
 10
1481.0
 20
173.575
 10
1463.14
 20
173.575
 10
1463.14
 20
159.29
  0
LWPOLYLINE
  5
8D
330
1F
100
AcDbEntity
  8
text2
100
AcDbPolyline
 90
       26
 70
     1
 43
0.0
 10
1506.0
 20
137.865
 10
1513.14
 20
141.435
 10
1516.71
 20
137.865
 10
1531.0
 20
137.865
 10
1534.57
 20
141.435
 10
1534.57
 20
145.005
 10
1527.425
 20
152.15
 10
1520.285
 20
152.15
 10
1520.285
 20
159.29
 10
1527.425
 20
159.29
 10
1534.57
 20
166.435
 10
1534.57
 20
170.005
 10
1531.0
 20
173.575
 10
1516.71
 20
173.575
 10
1513.14
 20
170.005
 10
1506.0
 20
173.575
 10
1513.14
 20
180.72
 10
1534.57
 20
180.72
 10
1541.71
 20
173.575
 10
1541.71
 20
162.865
 10
1534.57
 20
155.72
 10
1541.71
 20
148.575
 10
1541.71
 20
137.865
 10
1534.57
 20
130.72
 10
1513.14
 20
130.72
 10
1506.0
 20
137.865
  0
LWPOLYLINE
  5
8E
330
1F
100
AcDbEntity
  8
text2
100
AcDbPolyline
 90
       11
 70
     1
 43
0.0
 10
533.57
 20
218.715
 10
533.57
 20
225.86
 10
540.715
 20
225.86
 10
540.715
 20
261.57
 10
533.57
 20
261.57
 10
540.715
 20
268.715
 10
547.855
 20
268.715
 10
547.855
 20
225.86
 10
555.0
 20
225.86
 10
555.0
 20
218.715
 10
533.57
 20
218.715
  0
LWPOLYLINE
  5
8F
330
1F
100
AcDbEntity
  8
text2
100
AcDbPolyline
 90
        7
 70
     1
 43
0.0
 10
483.57
 20
247.285
 10
505.0
 20
247.285
 10
505.0
 20
258.0
 10
501.43
 20
261.57
 10
487.14
 20
261.57
 10
483.57
 20
258.0
 10
483.57
 20
247.285
  0
LWPOLYLINE
  5
90
330
1F
100
AcDbEntity
  8
text2
100
AcDbPolyline
 90
       11
 70
     1
 43
0.0
 10
476.43
 20
218.715
 10
476.43
 20
261.57
 10
483.57
 20
268.715
 10
505.0
 20
268.715
 10
512.14
 20
261.57
 10
512.14
 20
218.715
 10
505.0
 20
218.715
 10
505.0
 20
240.145
 10
483.57
 20
240.145
 10
483.57
 20
218.715
 10
476.43
 20
218.715
  0
LWPOLYLINE
  5
91
330
1F
100
AcDbEntity
  8
text2
100
AcDbPolyline
 90
       11
 70
     1
 43
0.0
 10
127.0
 20
871.0
 10
127.0
 20
874.573
 10
130.572
 20
874.573
 10
130.572
 20
892.428
 10
127.0
 20
892.428
 10
130.572
 20
896.0
 10
134.142
 20
896.0
 10
134.142
 20
874.573
 10
137.714
 20
874.573
 10
137.714
 20
871.0
 10
127.0
 20
871.0
  0
LWPOLYLINE
  5
92
330
1F
100
AcDbEntity
  8
text2
100
AcDbPolyline
 90
        4
 70
     1
 43
0.0
 10
323.2
 20
1036.3
 10
323.2
 20
1136.3
 10
423.2
 20
1136.3
 10
423.2
 20
1036.3
  0
LWPOLYLINE
  5
93
330
1F
100
AcDbEntity
  8
text2
100
AcDbPolyline
 90
        4
 70
     1
 43
0.0
 10
473.2
 20
1036.3
 10
473.2
 20
1136.3
 10
573.2
 20
1136.3
 10
573.2
 20
1036.3
  0
LWPOLYLINE
  5
94
330
1F
100
AcDbEntity
  8
text2
100
AcDbPolyline
 90
        4
 70
     1
 43
0.0
 10
623.2
 20
1036.3
 10
623.2
 20
1136.3
 10
723.2
 20
1136.3
 10
723.2
 20
1036.3
  0
LWPOLYLINE
  5
95
330
1F
100
AcDbEntity
  8
text2
100
AcDbPolyline
 90
        4
 70
     1
 43
0.0
 10
1853.5
 20
238.7
 10
1853.5
 20
318.7
 10
1933.5
 20
318.7
 10
1933.5
 20
238.7
  0
LWPOLYLINE
  5
96
330
1F
100
AcDbEntity
  8
text2
100
AcDbPolyline
 90
        4
 70
     1
 43
0.0
 10
1853.5
 20
363.7
 10
1853.5
 20
443.7
 10
1933.5
 20
443.7
 10
1933.5
 20
363.7
  0
LWPOLYLINE
  5
97
330
1F
100
AcDbEntity
  8
text2
100
AcDbPolyline
 90
        4
 70
     1
 43
0.0
 10
1853.5
 20
488.7
 10
1853.5
 20
568.7
 10
1933.5
 20
568.7
 10
1933.5
 20
488.7
  0
LWPOLYLINE
  5
98
330
1F
100
AcDbEntity
  8
text2
100
AcDbPolyline
 90
        4
 70
     1
 43
0.0
 10
1853.5
 20
613.7
 10
1853.5
 20
693.7
 10
1933.5
 20
693.7
 10
1933.5
 20
613.7
  0
LWPOLYLINE
  5
99
330
1F
100
AcDbEntity
  8
text2
100
AcDbPolyline
 90
        4
 70
     1
 43
0.0
 10
1853.5
 20
738.7
 10
1853.5
 20
818.7
 10
1933.5
 20
818.7
 10
1933.5
 20
738.7
  0
LWPOLYLINE
  5
9A
330
1F
100
AcDbEntity
  8
text2
100
AcDbPolyline
 90
        4
 70
     1
 43
0.0
 10
1853.5
 20
863.7
 10
1853.5
 20
943.7
 10
1933.5
 20
943.7
 10
1933.5
 20
863.7
  0
LWPOLYLINE
  5
9B
330
1F
100
AcDbEntity
  8
text2
100
AcDbPolyline
 90
        4
 70
     1
 43
0.0
 10
1853.5
 20
988.7
 10
1853.5
 20
1068.7
 10
1933.5
 20
1068.7
 10
1933.5
 20
988.7
  0
ENDSEC
  0
SECTION
  2
OBJECTS
  0
DICTIONARY
  5
C
330
0
100
AcDbDictionary
281
     1
  3
ACAD_GROUP
350
D
  3
ACAD_LAYOUT
350
1A
  3
ACAD_MLEADERSTYLE
350
9D
  3
ACAD_MLINESTYLE
350
17
  3
ACAD_PLOTSETTINGS
350
19
  3
ACAD_PLOTSTYLENAME
350
E
  3
ACAD_SCALELIST
350
3B
  3
ACAD_TABLESTYLE
350
9C
  3
ACAD_VISUALSTYLE
350
2A
  0
DICTIONARY
  5
D
102
{ACAD_REACTORS
330
C
102
}
330
C
100
AcDbDictionary
281
     1
  0
DICTIONARY
  5
1A
102
{ACAD_REACTORS
330
C
102
}
330
C
100
AcDbDictionary
281
     1
  3
Layout1
350
1E
  3
Layout2
350
26
  3
Model
350
22
  0
DICTIONARY
  5
9D
102
{ACAD_REACTORS
330
C
102
}
330
C
100
AcDbDictionary
281
     1
  0
DICTIONARY
  5
17
102
{ACAD_REACTORS
330
C
102
}
330
C
100
AcDbDictionary
281
     1
  3
Standard
350
18
  0
DICTIONARY
  5
19
102
{ACAD_REACTORS
330
C
102
}
330
C
100
AcDbDictionary
281
     1
  0
ACDBDICTIONARYWDFLT
  5
E
102
{ACAD_REACTORS
330
C
102
}
330
C
100
AcDbDictionary
281
     1
  3
Normal
350
F
100
AcDbDictionaryWithDefault
340
F
  0
DICTIONARY
  5
3B
102
{ACAD_REACTORS
330
C
102
}
330
C
100
AcDbDictionary
281
     1
  3
A0
350
3C
  3
A1
350
3D
  3
A2
350
3E
  3
A3
350
3F
  3
A4
350
40
  3
A5
350
41
  3
A6
350
42
  3
A7
350
43
  3
A8
350
44
  3
A9
350
45
  3
B0
350
46
  3
B1
350
47
  3
B2
350
48
  3
B3
350
49
  3
B4
350
4A
  3
B5
350
4B
  3
B6
350
4C
  3
B7
350
4D
  3
B8
350
4E
  3
B9
350
4F
  3
C0
350
50
  3
C1
350
51
  3
C2
350
52
  3
C3
350
53
  3
C4
350
54
  3
C5
350
55
  3
C6
350
56
  3
C7
350
57
  3
C8
350
58
  3
C9
350
59
  3
D0
350
5A
  3
D1
350
5B
  3
D2
350
5C
  0
DICTIONARY
  5
9C
102
{ACAD_REACTORS
330
C
102
}
330
C
100
AcDbDictionary
281
     1
  0
DICTIONARY
  5
2A
102
{ACAD_REACTORS
330
C
102
}
330
C
100
AcDbDictionary
281
     1
  3
2dWireframe
350
2F
  3
3D Hidden
350
31
  3
3dWireframe
350
30
  3
Basic
350
32
  3
Brighten
350
36
  3
ColorChange
350
3A
  3
Conceptual
350
34
  3
Dim
350
35
  3
Facepattern
350
39
  3
Flat
350
2B
  3
FlatWithEdges
350
2C
  3
Gouraud
350
2D
  3
GouraudWithEdges
350
2E
  3
Linepattern
350
38
  3
Realistic
350
33
  3
Thicken
350
37
  0
LAYOUT
  5
1E
102
{ACAD_REACTORS
330
1A
102
}
330
1A
100
AcDbPlotSettings
  1

  2
none_device
  4

  6

 40
0.0
 41
0.0
 42
0.0
 43
0.0
 44
0.0
 45
0.0
 46
0.0
 47
0.0
 48
0.0
 49
0.0
140
0.0
141
0.0
142
1.0
143
1.0
 70
   688
 72
     0
 73
     0
 74
     5
  7

 75
    16
 76
     0
 77
     2
 78
   300
147
1.0
148
0.0
149
0.0
100
AcDbLayout
  1
Layout1
 70
     1
 71
     1
 10
0.0
 20
0.0
 11
12.0
 21
9.0
 12
0.0
 22
0.0
 32
0.0
 14
1.000000000000000E+20
 24
1.000000000000000E+20
 34
1.000000000000000E+20
 15
-1.000000000000000E+20
 25
-1.000000000000000E+20
 35
-1.000000000000000E+20
146
0.0
 13
0.0
 23
0.0
 33
0.0
 16
1.0
 26
0.0
 36
0.0
 17
0.0
 27
1.0
 37
0.0
 76
     0
330
1B
  0
LAYOUT
  5
26
102
{ACAD_REACTORS
330
1A
102
}
330
1A
100
AcDbPlotSettings
  1

  2
none_device
  4

  6

 40
0.0
 41
0.0
 42
0.0
 43
0.0
 44
0.0
 45
0.0
 46
0.0
 47
0.0
 48
0.0
 49
0.0
140
0.0
141
0.0
142
1.0
143
1.0
 70
   688
 72
     0
 73
     0
 74
     5
  7

 75
    16
 76
     0
 77
     2
 78
   300
147
1.0
148
0.0
149
0.0
100
AcDbLayout
  1
Layout2
 70
     1
 71
     2
 10
0.0
 20
0.0
 11
0.0
 21
0.0
 12
0.0
 22
0.0
 32
0.0
 14
0.0
 24
0.0
 34
0.0
 15
0.0
 25
0.0
 35
0.0
146
0.0
 13
0.0
 23
0.0
 33
0.0
 16
1.0
 26
0.0
 36
0.0
 17
0.0
 27
1.0
 37
0.0
 76
     0
330
23
  0
LAYOUT
  5
22
102
{ACAD_REACTORS
330
1A
102
}
330
1A
100
AcDbPlotSettings
  1

  2
none_device
  4

  6

 40
0.0
 41
0.0
 42
0.0
 43
0.0
 44
0.0
 45
0.0
 46
0.0
 47
0.0
 48
0.0
 49
0.0
140
0.0
141
0.0
142
1.0
143
1.0
 70
  1712
 72
     0
 73
     0
 74
     0
  7

 75
     0
 76
     0
 77
     2
 78
   300
147
1.0
148
0.0
149
0.0
100
AcDbLayout
  1
Model
 70
     1
 71
     0
 10
0.0
 20
0.0
 11
12.0
 21
9.0
 12
0.0
 22
0.0
 32
0.0
 14
1.000000000000000E+20
 24
1.000000000000000E+20
 34
1.000000000000000E+20
 15
-1.000000000000000E+20
 25
-1.000000000000000E+20
 35
-1.000000000000000E+20
146
0.0
 13
0.0
 23
0.0
 33
0.0
 16
1.0
 26
0.0
 36
0.0
 17
0.0
 27
1.0
 37
0.0
 76
     0
330
1F
331
29
  0
MLINESTYLE
  5
18
102
{ACAD_REACTORS
330
17
102
}
330
17
100
AcDbMlineStyle
  2
Standard
 70
     0
  3

 62
   256
 51
90.0
 52
90.0
 71
     2
 49
0.5
 62
   256
  6
BYLAYER
 49
-0.5
 62
   256
  6
BYLAYER
  0
ACDBPLACEHOLDER
  5
F
102
{ACAD_REACTORS
330
E
102
}
330
E
  0
SCALE
  5
3C
102
{ACAD_REACTORS
330
3B
102
}
330
3B
100
AcDbScale
 70
     0
300
1:1
140
1.0
141
1.0
290
     1
  0
SCALE
  5
3D
102
{ACAD_REACTORS
330
3B
102
}
330
3B
100
AcDbScale
 70
     0
300
1:2
140
1.0
141
2.0
290
     0
  0
SCALE
  5
3E
102
{ACAD_REACTORS
330
3B
102
}
330
3B
100
AcDbScale
 70
     0
300
1:4
140
1.0
141
4.0
290
     0
  0
SCALE
  5
3F
102
{ACAD_REACTORS
330
3B
102
}
330
3B
100
AcDbScale
 70
     0
300
1:5
140
1.0
141
5.0
290
     0
  0
SCALE
  5
40
102
{ACAD_REACTORS
330
3B
102
}
330
3B
100
AcDbScale
 70
     0
300
1:8
140
1.0
141
8.0
290
     0
  0
SCALE
  5
41
102
{ACAD_REACTORS
330
3B
102
}
330
3B
100
AcDbScale
 70
     0
300
1:10
140
1.0
141
10.0
290
     0
  0
SCALE
  5
42
102
{ACAD_REACTORS
330
3B
102
}
330
3B
100
AcDbScale
 70
     0
300
1:16
140
1.0
141
16.0
290
     0
  0
SCALE
  5
43
102
{ACAD_REACTORS
330
3B
102
}
330
3B
100
AcDbScale
 70
     0
300
1:20
140
1.0
141
20.0
290
     0
  0
SCALE
  5
44
102
{ACAD_REACTORS
330
3B
102
}
330
3B
100
AcDbScale
 70
     0
300
1:30
140
1.0
141
30.0
290
     0
  0
SCALE
  5
45
102
{ACAD_REACTORS
330
3B
102
}
330
3B
100
AcDbScale
 70
     0
300
1:40
140
1.0
141
40.0
290
     0
  0
SCALE
  5
46
102
{ACAD_REACTORS
330
3B
102
}
330
3B
100
AcDbScale
 70
     0
300
1:50
140
1.0
141
50.0
290
     0
  0
SCALE
  5
47
102
{ACAD_REACTORS
330
3B
102
}
330
3B
100
AcDbScale
 70
     0
300
1:100
140
1.0
141
100.0
290
     0
  0
SCALE
  5
48
102
{ACAD_REACTORS
330
3B
102
}
330
3B
100
AcDbScale
 70
     0
300
2:1
140
2.0
141
1.0
290
     0
  0
SCALE
  5
49
102
{ACAD_REACTORS
330
3B
102
}
330
3B
100
AcDbScale
 70
     0
300
4:1
140
4.0
141
1.0
290
     0
  0
SCALE
  5
4A
102
{ACAD_REACTORS
330
3B
102
}
330
3B
100
AcDbScale
 70
     0
300
8:1
140
8.0
141
1.0
290
     0
  0
SCALE
  5
4B
102
{ACAD_REACTORS
330
3B
102
}
330
3B
100
AcDbScale
 70
     0
300
10:1
140
10.0
141
1.0
290
     0
  0
SCALE
  5
4C
102
{ACAD_REACTORS
330
3B
102
}
330
3B
100
AcDbScale
 70
     0
300
100:1
140
100.0
141
1.0
290
     0
  0
SCALE
  5
4D
102
{ACAD_REACTORS
330
3B
102
}
330
3B
100
AcDbScale
 70
     0
300
1/128" = 1'-0"
140
0.0078125
141
12.0
290
     0
  0
SCALE
  5
4E
102
{ACAD_REACTORS
330
3B
102
}
330
3B
100
AcDbScale
 70
     0
300
1/64" = 1'-0"
140
0.015625
141
12.0
290
     0
  0
SCALE
  5
4F
102
{ACAD_REACTORS
330
3B
102
}
330
3B
100
AcDbScale
 70
     0
300
1/32" = 1'-0"
140
0.03125
141
12.0
290
     0
  0
SCALE
  5
50
102
{ACAD_REACTORS
330
3B
102
}
330
3B
100
AcDbScale
 70
     0
300
1/16" = 1'-0"
140
0.0625
141
12.0
290
     0
  0
SCALE
  5
51
102
{ACAD_REACTORS
330
3B
102
}
330
3B
100
AcDbScale
 70
     0
300
3/32" = 1'-0"
140
0.09375
141
12.0
290
     0
  0
SCALE
  5
52
102
{ACAD_REACTORS
330
3B
102
}
330
3B
100
AcDbScale
 70
     0
300
1/8" = 1'-0"
140
0.125
141
12.0
290
     0
  0
SCALE
  5
53
102
{ACAD_REACTORS
330
3B
102
}
330
3B
100
AcDbScale
 70
     0
300
3/16" = 1'-0"
140
0.1875
141
12.0
290
     0
  0
SCALE
  5
54
102
{ACAD_REACTORS
330
3B
102
}
330
3B
100
AcDbScale
 70
     0
300
1/4" = 1'-0"
140
0.25
141
12.0
290
     0
  0
SCALE
  5
55
102
{ACAD_REACTORS
330
3B
102
}
330
3B
100
AcDbScale
 70
     0
300
3/8" = 1'-0"
140
0.375
141
12.0
290
     0
  0
SCALE
  5
56
102
{ACAD_REACTORS
330
3B
102
}
330
3B
100
AcDbScale
 70
     0
300
1/2" = 1'-0"
140
0.5
141
12.0
290
     0
  0
SCALE
  5
57
102
{ACAD_REACTORS
330
3B
102
}
330
3B
100
AcDbScale
 70
     0
300
3/4" = 1'-0"
140
0.75
141
12.0
290
     0
  0
SCALE
  5
58
102
{ACAD_REACTORS
330
3B
102
}
330
3B
100
AcDbScale
 70
     0
300
1" = 1'-0"
140
1.0
141
12.0
290
     0
  0
SCALE
  5
59
102
{ACAD_REACTORS
330
3B
102
}
330
3B
100
AcDbScale
 70
     0
300
1-1/2" = 1'-0"
140
1.5
141
12.0
290
     0
  0
SCALE
  5
5A
102
{ACAD_REACTORS
330
3B
102
}
330
3B
100
AcDbScale
 70
     0
300
3" = 1'-0"
140
3.0
141
12.0
290
     0
  0
SCALE
  5
5B
102
{ACAD_REACTORS
330
3B
102
}
330
3B
100
AcDbScale
 70
     0
300
6" = 1'-0"
140
6.0
141
12.0
290
     0
  0
SCALE
  5
5C
102
{ACAD_REACTORS
330
3B
102
}
330
3B
100
AcDbScale
 70
     0
300
1'-0" = 1'-0"
140
12.0
141
12.0
290
     0
  0
VISUALSTYLE
  5
2F
102
{ACAD_REACTORS
330
2A
102
}
330
2A
100
AcDbVisualStyle
  2
2dWireframe
 70
     4
 71
     0
 72
     2
 73
     0
 90
        0
 40
-0.6
 41
-30.0
 62
     5
 63
     7
421
 16777215
 74
     1
 91
        4
 64
     7
 65
   257
 75
     1
175
     1
 42
1.0
 92
        0
 66
   257
 43
1.0
 76
     1
 77
     6
 78
     2
 67
     7
 79
     5
170
     0
171
     0
290
     0
174
     0
 93
        1
 44
0.0
173
     0
291
     0
 45
0.0
1001
ACAD
1000
AcDbSavedByObjectVersion
1070
     0
  0
VISUALSTYLE
  5
31
102
{ACAD_REACTORS
330
2A
102
}
330
2A
100
AcDbVisualStyle
  2
3D Hidden
 70
     6
 71
     1
 72
     2
 73
     2
 90
        0
 40
-0.6
 41
-30.0
 62
     5
 63
     7
421
 16777215
 74
     2
 91
        2
 64
     7
 65
   257
 75
     2
175
     1
 42
40.0
 92
        0
 66
   257
 43
1.0
 76
     1
 77
     6
 78
     2
 67
     7
 79
     3
170
     0
171
     0
290
     0
174
     0
 93
        1
 44
0.0
173
     0
291
     0
 45
0.0
1001
ACAD
1000
AcDbSavedByObjectVersion
1070
     0
  0
VISUALSTYLE
  5
30
102
{ACAD_REACTORS
330
2A
102
}
330
2A
100
AcDbVisualStyle
  2
3dWireframe
 70
     5
 71
     0
 72
     2
 73
     0
 90
        0
 40
-0.6
 41
-30.0
 62
     5
 63
     7
421
 16777215
 74
     1
 91
        4
 64
     7
 65
   257
 75
     1
175
     1
 42
1.0
 92
        0
 66
   257
 43
1.0
 76
     1
 77
     6
 78
     2
 67
     7
 79
     5
170
     0
171
     0
290
     0
174
     0
 93
        1
 44
0.0
173
     0
291
     0
 45
0.0
1001
ACAD
1000
AcDbSavedByObjectVersion
1070
     0
  0
VISUALSTYLE
  5
32
102
{ACAD_REACTORS
330
2A
102
}
330
2A
100
AcDbVisualStyle
  2
Basic
 70
     7
 71
     1
 72
     0
 73
     1
 90
        0
 40
-0.6
 41
-30.0
 62
     5
 63
     7
421
 16777215
 74
     0
 91
        4
 64
     7
 65
   257
 75
     1
175
     1
 42
1.0
 92
        8
 66
     7
 43
1.0
 76
     1
 77
     6
 78
     2
 67
     7
 79
     5
170
     0
171
     0
290
     0
174
     0
 93
        1
 44
0.0
173
     0
291
     1
 45
0.0
1001
ACAD
1000
AcDbSavedByObjectVersion
1070
     0
  0
VISUALSTYLE
  5
36
102
{ACAD_REACTORS
330
2A
102
}
330
2A
100
AcDbVisualStyle
  2
Brighten
 70
    12
 71
     2
 72
     2
 73
     0
 90
        0
 40
-0.6
 41
-30.0
 62
     5
 63
     7
421
 16777215
 74
     1
 91
        4
 64
     7
 65
   257
 75
     1
175
     1
 42
1.0
 92
        8
 66
     7
 43
1.0
 76
     1
 77
     6
 78
     2
 67
     7
 79
     5
170
     0
171
     0
290
     0
174
     0
 93
        1
 44
50.0
173
     0
291
     1
 45
0.0
1001
ACAD
1000
AcDbSavedByObjectVersion
1070
     0
  0
VISUALSTYLE
  5
3A
102
{ACAD_REACTORS
330
2A
102
}
330
2A
100
AcDbVisualStyle
  2
ColorChange
 70
    16
 71
     2
 72
     2
 73
     3
 90
        0
 40
-0.6
 41
-30.0
 62
     5
 63
     8
421
  8421504
 74
     1
 91
        4
 64
     7
 65
   257
 75
     1
175
     1
 42
1.0
 92
        8
 66
     8
424
  8421504
 43
1.0
 76
     1
 77
     6
 78
     2
 67
     7
 79
     5
170
     0
171
     0
290
     0
174
     0
 93
        1
 44
0.0
173
     0
291
     1
 45
0.0
1001
ACAD
1000
AcDbSavedByObjectVersion
1070
     0
  0
VISUALSTYLE
  5
34
102
{ACAD_REACTORS
330
2A
102
}
330
2A
100
AcDbVisualStyle
  2
Conceptual
 70
     9
 71
     3
 72
     2
 73
     0
 90
        0
 40
-0.6
 41
-30.0
 62
     5
 63
     7
421
 16777215
 74
     2
 91
        2
 64
     7
 65
   257
 75
     1
175
     1
 42
40.0
 92
        8
 66
     7
 43
1.0
 76
     1
 77
     6
 78
     2
 67
     7
 79
     3
170
     0
171
     0
290
     0
174
     0
 93
        1
 44
0.0
173
     0
291
     0
 45
0.0
1001
ACAD
1000
AcDbSavedByObjectVersion
1070
     0
  0
VISUALSTYLE
  5
35
102
{ACAD_REACTORS
330
2A
102
}
330
2A
100
AcDbVisualStyle
  2
Dim
 70
    11
 71
     2
 72
     2
 73
     0
 90
        0
 40
-0.6
 41
-30.0
 62
     5
 63
     7
421
 16777215
 74
     1
 91
        4
 64
     7
 65
   257
 75
     1
175
     1
 42
1.0
 92
        8
 66
     7
 43
1.0
 76
     1
 77
     6
 78
     2
 67
     7
 79
     5
170
     0
171
     0
290
     0
174
     0
 93
        1
 44
-50.0
173
     0
291
     1
 45
0.0
1001
ACAD
1000
AcDbSavedByObjectVersion
1070
     0
  0
VISUALSTYLE
  5
39
102
{ACAD_REACTORS
330
2A
102
}
330
2A
100
AcDbVisualStyle
  2
Facepattern
 70
    15
 71
     2
 72
     2
 73
     0
 90
        0
 40
-0.6
 41
-30.0
 62
     5
 63
     7
421
 16777215
 74
     1
 91
        4
 64
     7
 65
   257
 75
     1
175
     1
 42
1.0
 92
        8
 66
     7
 43
1.0
 76
     1
 77
     6
 78
     2
 67
     7
 79
     5
170
     0
171
     0
290
     0
174
     0
 93
        1
 44
0.0
173
     0
291
     1
 45
0.0
1001
ACAD
1000
AcDbSavedByObjectVersion
1070
     0
  0
VISUALSTYLE
  5
2B
102
{ACAD_REACTORS
330
2A
102
}
330
2A
100
AcDbVisualStyle
  2
Flat
 70
     0
 71
     2
 72
     1
 73
     1
 90
        2
 40
-0.6
 41
30.0
 62
     5
 63
     7
421
 16777215
 74
     0
 91
        4
 64
     7
 65
   257
 75
     1
175
     1
 42
1.0
 92
        8
 66
     7
 43
1.0
 76
     1
 77
     6
 78
     2
 67
     7
 79
     5
170
     0
171
     0
290
     0
174
     0
 93
       13
 44
0.0
173
     0
291
     1
 45
0.0
1001
ACAD
1000
AcDbSavedByObjectVersion
1070
     0
  0
VISUALSTYLE
  5
2C
102
{ACAD_REACTORS
330
2A
102
}
330
2A
100
AcDbVisualStyle
  2
FlatWithEdges
 70
     1
 71
     2
 72
     1
 73
     1
 90
        2
 40
-0.6
 41
30.0
 62
     5
 63
     7
421
 16777215
 74
     1
 91
        4
 64
     7
 65
   257
 75
     1
175
     1
 42
1.0
 92
        0
 66
   257
 43
1.0
 76
     1
 77
     6
 78
     2
 67
     7
 79
     5
170
     0
171
     0
290
     0
174
     0
 93
       13
 44
0.0
173
     0
291
     1
 45
0.0
1001
ACAD
1000
AcDbSavedByObjectVersion
1070
     0
  0
VISUALSTYLE
  5
2D
102
{ACAD_REACTORS
330
2A
102
}
330
2A
100
AcDbVisualStyle
  2
Gouraud
 70
     2
 71
     2
 72
     2
 73
     1
 90
        2
 40
-0.6
 41
30.0
 62
     5
 63
     7
421
 16777215
 74
     0
 91
        4
 64
     7
 65
   257
 75
     1
175
     1
 42
1.0
 92
        0
 66
     7
 43
1.0
 76
     1
 77
     6
 78
     2
 67
     7
 79
     5
170
     0
171
     0
290
     0
174
     0
 93
       13
 44
0.0
173
     0
291
     1
 45
0.0
1001
ACAD
1000
AcDbSavedByObjectVersion
1070
     0
  0
VISUALSTYLE
  5
2E
102
{ACAD_REACTORS
330
2A
102
}
330
2A
100
AcDbVisualStyle
  2
GouraudWithEdges
 70
     3
 71
     2
 72
     2
 73
     1
 90
        2
 40
-0.6
 41
30.0
 62
     5
 63
     7
421
 16777215
 74
     1
 91
        4
 64
     7
 65
   257
 75
     1
175
     1
 42
1.0
 92
        0
 66
   257
 43
1.0
 76
     1
 77
     6
 78
     2
 67
     7
 79
     5
170
     0
171
     0
290
     0
174
     0
 93
       13
 44
0.0
173
     0
291
     1
 45
0.0
1001
ACAD
1000
AcDbSavedByObjectVersion
1070
     0
  0
VISUALSTYLE
  5
38
102
{ACAD_REACTORS
330
2A
102
}
330
2A
100
AcDbVisualStyle
  2
Linepattern
 70
    14
 71
     2
 72
     2
 73
     0
 90
        0
 40
-0.6
 41
-30.0
 62
     5
 63
     7
421
 16777215
 74
     1
 91
        4
 64
     7
 65
   257
 75
     7
175
     7
 42
1.0
 92
        8
 66
     7
 43
1.0
 76
     1
 77
     6
 78
     2
 67
     7
 79
     5
170
     0
171
     0
290
     0
174
     0
 93
        1
 44
0.0
173
     0
291
     1
 45
0.0
1001
ACAD
1000
AcDbSavedByObjectVersion
1070
     0
  0
VISUALSTYLE
  5
33
102
{ACAD_REACTORS
330
2A
102
}
330
2A
100
AcDbVisualStyle
  2
Realistic
 70
     8
 71
     2
 72
     2
 73
     0
 90
        0
 40
-0.6
 41
-30.0
 62
     5
 63
     7
421
 16777215
 74
     1
 91
        0
 64
     7
 65
   257
 75
     1
175
     1
 42
1.0
 92
        8
 66
     8
424
  7895160
 43
1.0
 76
     1
 77
     6
 78
     2
 67
     7
 79
     5
170
     0
171
     0
290
     0
174
     0
 93
       13
 44
0.0
173
     0
291
     0
 45
0.0
1001
ACAD
1000
AcDbSavedByObjectVersion
1070
     0
  0
VISUALSTYLE
  5
37
102
{ACAD_REACTORS
330
2A
102
}
330
2A
100
AcDbVisualStyle
  2
Thicken
 70
    13
 71
     2
 72
     2
 73
     0
 90
        0
 40
-0.6
 41
-30.0
 62
     5
 63
     7
421
 16777215
 74
     1
 91
        4
 64
     7
 65
   257
 75
     1
175
     1
 42
1.0
 92
       12
 66
     7
 43
1.0
 76
     1
 77
     6
 78
     2
 67
     7
 79
     5
170
     0
171
     0
290
     0
174
     0
 93
        1
 44
0.0
173
     0
291
     1
 45
0.0
1001
ACAD
1000
AcDbSavedByObjectVersion
1070
     0
  0
ENDSEC
  0
EOF
