  0
SECTION
  2
HEADER
  9
$ACADVER
  1
AC1018
  9
$ACADMAINTVER
 70
     0
  9
$DWGCODEPAGE
  3
ANSI_1252
  9
$INSBASE
 10
0.0
 20
0.0
 30
0.0
  9
$EXTMIN
 10
1.000000000000000E+20
 20
1.000000000000000E+20
 30
1.000000000000000E+20
  9
$EXTMAX
 10
-1.000000000000000E+20
 20
-1.000000000000000E+20
 30
-1.000000000000000E+20
  9
$LIMMIN
 10
0.0
 20
0.0
  9
$LIMMAX
 10
12.0
 20
9.0
  9
$ORTHOMODE
 70
     0
  9
$REGENMODE
 70
     1
  9
$FILLMODE
 70
     1
  9
$QTEXTMODE
 70
     0
  9
$MIRRTEXT
 70
     1
  9
$LTSCALE
 40
1.0
  9
$ATTMODE
 70
     1
  9
$TEXTSIZE
 40
0.2
  9
$TRACEWID
 40
0.05
  9
$TEXTSTYLE
  7
Standard
  9
$CLAYER
  8
0
  9
$CELTYPE
  6
ByLayer
  9
$CECOLOR
 62
   256
  9
$CELTSCALE
 40
1.0
  9
$DISPSILH
 70
     0
  9
$DIMSCALE
 40
1.0
  9
$DIMASZ
 40
0.18
  9
$DIMEXO
 40
0.0625
  9
$DIMDLI
 40
0.38
  9
$DIMRND
 40
0.0
  9
$DIMDLE
 40
0.0
  9
$DIMEXE
 40
0.18
  9
$DIMTP
 40
0.0
  9
$DIMTM
 40
0.0
  9
$DIMTXT
 40
0.18
  9
$DIMCEN
 40
0.09
  9
$DIMTSZ
 40
0.0
  9
$DIMTOL
 70
     0
  9
$DIMLIM
 70
     0
  9
$DIMTIH
 70
     1
  9
$DIMTOH
 70
     1
  9
$DIMSE1
 70
     0
  9
$DIMSE2
 70
     0
  9
$DIMTAD
 70
     0
  9
$DIMZIN
 70
     0
  9
$DIMBLK
  1

  9
$DIMASO
 70
     1
  9
$DIMSHO
 70
     1
  9
$DIMPOST
  1

  9
$DIMAPOST
  1

  9
$DIMALT
 70
     0
  9
$DIMALTD
 70
     2
  9
$DIMALTF
 40
25.4
  9
$DIMLFAC
 40
1.0
  9
$DIMTOFL
 70
     0
  9
$DIMTVP
 40
0.0
  9
$DIMTIX
 70
     0
  9
$DIMSOXD
 70
     0
  9
$DIMSAH
 70
     0
  9
$DIMBLK1
  1

  9
$DIMBLK2
  1

  9
$DIMSTYLE
  2
Standard
  9
$DIMCLRD
 70
     0
  9
$DIMCLRE
 70
     0
  9
$DIMCLRT
 70
     0
  9
$DIMTFAC
 40
1.0
  9
$DIMGAP
 40
0.09
  9
$DIMJUST
 70
     0
  9
$DIMSD1
 70
     0
  9
$DIMSD2
 70
     0
  9
$DIMTOLJ
 70
     1
  9
$DIMTZIN
 70
     0
  9
$DIMALTZ
 70
     0
  9
$DIMALTTZ
 70
     0
  9
$DIMUPT
 70
     0
  9
$DIMDEC
 70
     4
  9
$DIMTDEC
 70
     4
  9
$DIMALTU
 70
     2
  9
$DIMALTTD
 70
     2
  9
$DIMTXSTY
  7
Standard
  9
$DIMAUNIT
 70
     0
  9
$DIMADEC
 70
     0
  9
$DIMALTRND
 40
0.0
  9
$DIMAZIN
 70
     0
  9
$DIMDSEP
 70
    46
  9
$DIMATFIT
 70
     3
  9
$DIMFRAC
 70
     0
  9
$DIMLDRBLK
  1

  9
$DIMLUNIT
 70
     2
  9
$DIMLWD
 70
    -2
  9
$DIMLWE
 70
    -2
  9
$DIMTMOVE
 70
     0
  9
$LUNITS
 70
     2
  9
$LUPREC
 70
     4
  9
$SKETCHINC
 40
0.1
  9
$FILLETRAD
 40
0.5
  9
$AUNITS
 70
     0
  9
$AUPREC
 70
     0
  9
$MENU
  1
.
  9
$ELEVATION
 40
0.0
  9
$PELEVATION
 40
0.0
  9
$THICKNESS
 40
0.0
  9
$LIMCHECK
 70
     0
  9
$CHAMFERA
 40
0.5
  9
$CHAMFERB
 40
0.5
  9
$CHAMFERC
 40
1.0
  9
$CHAMFERD
 40
0.0
  9
$SKPOLY
 70
     0
  9
$TDCREATE
 40
2456429.565722361
  9
$TDUCREATE
 40
2456429.482389028
  9
$TDUPDATE
 40
2456429.565722373
  9
$TDUUPDATE
 40
2456429.482389039
  9
$TDINDWG
 40
0.0000000116
  9
$TDUSRTIMER
 40
0.0000000116
  9
$USRTIMER
 70
     1
  9
$ANGBASE
 50
0.0
  9
$ANGDIR
 70
     0
  9
$PDMODE
 70
     0
  9
$PDSIZE
 40
0.0
  9
$PLINEWID
 40
0.0
  9
$SPLFRAME
 70
     0
  9
$SPLINETYPE
 70
     6
  9
$SPLINESEGS
 70
     8
  9
$HANDSEED
  5
EB
  9
$SURFTAB1
 70
     6
  9
$SURFTAB2
 70
     6
  9
$SURFTYPE
 70
     6
  9
$SURFU
 70
     6
  9
$SURFV
 70
     6
  9
$UCSBASE
  2

  9
$UCSNAME
  2

  9
$UCSORG
 10
0.0
 20
0.0
 30
0.0
  9
$UCSXDIR
 10
1.0
 20
0.0
 30
0.0
  9
$UCSYDIR
 10
0.0
 20
1.0
 30
0.0
  9
$UCSORTHOREF
  2

  9
$UCSORTHOVIEW
 70
     0
  9
$UCSORGTOP
 10
0.0
 20
0.0
 30
0.0
  9
$UCSORGBOTTOM
 10
0.0
 20
0.0
 30
0.0
  9
$UCSORGLEFT
 10
0.0
 20
0.0
 30
0.0
  9
$UCSORGRIGHT
 10
0.0
 20
0.0
 30
0.0
  9
$UCSORGFRONT
 10
0.0
 20
0.0
 30
0.0
  9
$UCSORGBACK
 10
0.0
 20
0.0
 30
0.0
  9
$PUCSBASE
  2

  9
$PUCSNAME
  2

  9
$PUCSORG
 10
0.0
 20
0.0
 30
0.0
  9
$PUCSXDIR
 10
1.0
 20
0.0
 30
0.0
  9
$PUCSYDIR
 10
0.0
 20
1.0
 30
0.0
  9
$PUCSORTHOREF
  2

  9
$PUCSORTHOVIEW
 70
     0
  9
$PUCSORGTOP
 10
0.0
 20
0.0
 30
0.0
  9
$PUCSORGBOTTOM
 10
0.0
 20
0.0
 30
0.0
  9
$PUCSORGLEFT
 10
0.0
 20
0.0
 30
0.0
  9
$PUCSORGRIGHT
 10
0.0
 20
0.0
 30
0.0
  9
$PUCSORGFRONT
 10
0.0
 20
0.0
 30
0.0
  9
$PUCSORGBACK
 10
0.0
 20
0.0
 30
0.0
  9
$USERI1
 70
     0
  9
$USERI2
 70
     0
  9
$USERI3
 70
     0
  9
$USERI4
 70
     0
  9
$USERI5
 70
     0
  9
$USERR1
 40
0.0
  9
$USERR2
 40
0.0
  9
$USERR3
 40
0.0
  9
$USERR4
 40
0.0
  9
$USERR5
 40
0.0
  9
$WORLDVIEW
 70
     1
  9
$SHADEDGE
 70
     3
  9
$SHADEDIF
 70
    70
  9
$TILEMODE
 70
     1
  9
$MAXACTVP
 70
    64
  9
$PINSBASE
 10
0.0
 20
0.0
 30
0.0
  9
$PLIMCHECK
 70
     0
  9
$PEXTMIN
 10
1.000000000000000E+20
 20
1.000000000000000E+20
 30
1.000000000000000E+20
  9
$PEXTMAX
 10
-1.000000000000000E+20
 20
-1.000000000000000E+20
 30
-1.000000000000000E+20
  9
$PLIMMIN
 10
0.0
 20
0.0
  9
$PLIMMAX
 10
12.0
 20
9.0
  9
$UNITMODE
 70
     0
  9
$VISRETAIN
 70
     1
  9
$PLINEGEN
 70
     0
  9
$PSLTSCALE
 70
     1
  9
$TREEDEPTH
 70
  3020
  9
$CMLSTYLE
  2
Standard
  9
$CMLJUST
 70
     0
  9
$CMLSCALE
 40
1.0
  9
$PROXYGRAPHICS
 70
     1
  9
$MEASUREMENT
 70
     0
  9
$CELWEIGHT
370
    -1
  9
$ENDCAPS
280
     0
  9
$JOINSTYLE
280
     0
  9
$LWDISPLAY
290
     0
  9
$INSUNITS
 70
    13
  9
$HYPERLINKBASE
  1

  9
$STYLESHEET
  1

  9
$XEDIT
290
     1
  9
$CEPSNTYPE
380
     0
  9
$PSTYLEMODE
290
     1
  9
$FINGERPRINTGUID
  2
{643F8004-3D6E-423B-8520-F0D6FB573252}
  9
$VERSIONGUID
  2
{FAEB1C32-E019-11D5-929B-00C0DF256EC4}
  9
$EXTNAMES
290
     1
  9
$PSVPSCALE
 40
0.0
  9
$OLESTARTUP
290
     0
  9
$SORTENTS
280
   127
  9
$INDEXCTL
280
     0
  9
$HIDETEXT
280
     1
  9
$XCLIPFRAME
290
     0
  9
$HALOGAP
280
     0
  9
$OBSCOLOR
 70
   257
  9
$OBSLTYPE
280
     0
  9
$INTERSECTIONDISPLAY
280
     0
  9
$INTERSECTIONCOLOR
 70
   257
  9
$DIMASSOC
280
     2
  9
$PROJECTNAME
  1

  0
ENDSEC
  0
SECTION
  2
CLASSES
  0
CLASS
  1
ACDBDICTIONARYWDFLT
  2
AcDbDictionaryWithDefault
  3
ObjectDBX Classes
 90
        0
 91
        3
280
     0
281
     0
  0
CLASS
  1
VISUALSTYLE
  2
AcDbVisualStyle
  3
ObjectDBX Classes
 90
     4095
 91
        3
280
     0
281
     0
  0
CLASS
  1
SCALE
  2
AcDbScale
  3
ObjectDBX Classes
 90
     1153
 91
        3
280
     0
281
     0
  0
ENDSEC
  0
SECTION
  2
TABLES
  0
TABLE
  2
VPORT
  5
8
330
0
100
AcDbSymbolTable
 70
     1
  0
VPORT
  5
29
330
8
100
AcDbSymbolTableRecord
100
AcDbViewportTableRecord
  2
*Active
 70
     0
 10
0.0
 20
0.0
 11
1.0
 21
1.0
 12
10.42990654205607
 22
4.5
 13
0.0
 23
0.0
 14
0.5
 24
0.5
 15
0.5
 25
0.5
 16
0.0
 26
0.0
 36
1.0
 17
0.0
 27
0.0
 37
0.0
 40
9.0
 41
1.972972972850329
 42
50.0
 43
0.0
 44
0.0
 50
0.0
 51
0.0
 71
     0
 72
   100
 73
     1
 74
     3
 75
     0
 76
     0
 77
     0
 78
     0
281
     0
 65
     1
110
0.0
120
0.0
130
0.0
111
1.0
121
0.0
131
0.0
112
0.0
122
1.0
132
0.0
 79
     0
146
0.0
  0
ENDTAB
  0
TABLE
  2
LTYPE
  5
5
330
0
100
AcDbSymbolTable
 70
     1
  0
LTYPE
  5
14
330
5
100
AcDbSymbolTableRecord
100
AcDbLinetypeTableRecord
  2
ByBlock
 70
     0
  3

 72
    65
 73
     0
 40
0.0
  0
LTYPE
  5
15
330
5
100
AcDbSymbolTableRecord
100
AcDbLinetypeTableRecord
  2
ByLayer
 70
     0
  3

 72
    65
 73
     0
 40
0.0
  0
LTYPE
  5
16
330
5
100
AcDbSymbolTableRecord
100
AcDbLinetypeTableRecord
  2
Continuous
 70
     0
  3
Solid line
 72
    65
 73
     0
 40
0.0
  0
ENDTAB
  0
TABLE
  2
LAYER
  5
2
330
0
100
AcDbSymbolTable
 70
     2
  0
LAYER
  5
10
330
2
100
AcDbSymbolTableRecord
100
AcDbLayerTableRecord
  2
0
 70
     0
 62
     7
  6
Continuous
370
    -3
390
F
  0
LAYER
  5
5E
330
2
100
AcDbSymbolTableRecord
100
AcDbLayerTableRecord
  2
text2
 70
     0
 62
    16
420
  8388608
  6
Continuous
370
    -3
390
F
  0
ENDTAB
  0
TABLE
  2
STYLE
  5
3
330
0
100
AcDbSymbolTable
 70
     1
  0
STYLE
  5
11
330
3
100
AcDbSymbolTableRecord
100
AcDbTextStyleTableRecord
  2
Standard
 70
     0
 40
0.0
 41
1.0
 50
0.0
 71
     0
 42
0.2
  3
txt
  4

  0
ENDTAB
  0
TABLE
  2
VIEW
  5
6
330
0
100
AcDbSymbolTable
 70
     0
  0
ENDTAB
  0
TABLE
  2
UCS
  5
7
330
0
100
AcDbSymbolTable
 70
     0
  0
ENDTAB
  0
TABLE
  2
APPID
  5
9
330
0
100
AcDbSymbolTable
 70
     1
  0
APPID
  5
12
330
9
100
AcDbSymbolTableRecord
100
AcDbRegAppTableRecord
  2
ACAD
 70
     0
  0
ENDTAB
  0
TABLE
  2
DIMSTYLE
  5
A
330
0
100
AcDbSymbolTable
 70
     1
100
AcDbDimStyleTable
  0
DIMSTYLE
105
27
330
A
100
AcDbSymbolTableRecord
100
AcDbDimStyleTableRecord
  2
Standard
 70
     0
340
11
  0
ENDTAB
  0
TABLE
  2
BLOCK_RECORD
  5
1
330
0
100
AcDbSymbolTable
 70
     1
  0
BLOCK_RECORD
  5
1F
330
1
100
AcDbSymbolTableRecord
100
AcDbBlockTableRecord
  2
*Model_Space
340
22
  0
BLOCK_RECORD
  5
1B
330
1
100
AcDbSymbolTableRecord
100
AcDbBlockTableRecord
  2
*Paper_Space
340
1E
  0
BLOCK_RECORD
  5
23
330
1
100
AcDbSymbolTableRecord
100
AcDbBlockTableRecord
  2
*Paper_Space0
340
26
  0
ENDTAB
  0
ENDSEC
  0
SECTION
  2
BLOCKS
  0
BLOCK
  5
20
330
1F
100
AcDbEntity
  8
0
100
AcDbBlockBegin
  2
*Model_Space
 70
     0
 10
0.0
 20
0.0
 30
0.0
  3
*Model_Space
  1

  0
ENDBLK
  5
21
330
1F
100
AcDbEntity
  8
0
100
AcDbBlockEnd
  0
BLOCK
  5
1C
330
1B
100
AcDbEntity
 67
     1
  8
0
100
AcDbBlockBegin
  2
*Paper_Space
 70
     0
 10
0.0
 20
0.0
 30
0.0
  3
*Paper_Space
  1

  0
ENDBLK
  5
1D
330
1B
100
AcDbEntity
 67
     1
  8
0
100
AcDbBlockEnd
  0
BLOCK
  5
24
330
23
100
AcDbEntity
  8
0
100
AcDbBlockBegin
  2
*Paper_Space0
 70
     0
 10
0.0
 20
0.0
 30
0.0
  3
*Paper_Space0
  1

  0
ENDBLK
  5
25
330
23
100
AcDbEntity
  8
0
100
AcDbBlockEnd
  0
ENDSEC
  0
SECTION
  2
ENTITIES
  0
LWPOLYLINE
  5
5D
330
1F
100
AcDbEntity
  8
text2
100
AcDbPolyline
 90
        2
 70
     0
 43
0.0
 10
-5.0
 20
-5.0
 10
5.0
 20
5.0
  0
LWPOLYLINE
  5
5F
330
1F
100
AcDbEntity
  8
text2
100
AcDbPolyline
 90
        2
 70
     0
 43
0.0
 10
-5.0
 20
5.0
 10
5.0
 20
-5.0
  0
LWPOLYLINE
  5
60
330
1F
100
AcDbEntity
  8
text2
100
AcDbPolyline
 90
        3
 70
     0
 43
0.0
 10
0.0
 20
1190.0
 10
0.0
 20
1200.0
 10
10.0
 20
1200.0
  0
LWPOLYLINE
  5
61
330
1F
100
AcDbEntity
  8
text2
100
AcDbPolyline
 90
        3
 70
     0
 43
0.0
 10
2990.0
 20
1200.0
 10
3000.0
 20
1200.0
 10
3000.0
 20
1190.0
  0
LWPOLYLINE
  5
62
330
1F
100
AcDbEntity
  8
text2
100
AcDbPolyline
 90
        3
 70
     0
 43
0.0
 10
2990.0
 20
0.0
 10
3000.0
 20
0.0
 10
3000.0
 20
10.0
  0
LWPOLYLINE
  5
63
330
1F
100
AcDbEntity
  8
text2
100
AcDbPolyline
 90
       23
 70
     1
 43
0.0
 10
2849.05
 20
1094.675
 10
2849.05
 20
1119.675
 10
2859.55
 20
1119.675
 10
2861.55
 20
1119.425
 10
2863.3
 20
1118.925
 10
2864.8
 20
1118.175
 10
2866.05
 20
1117.175
 10
2867.3
 20
1115.675
 10
2868.05
 20
1114.175
 10
2868.8
 20
1112.675
 10
2869.3
 20
1110.925
 10
2869.8
 20
1108.925
 10
2869.8
 20
1105.425
 10
2869.3
 20
1103.425
 10
2868.8
 20
1101.675
 10
2868.05
 20
1100.175
 10
2867.3
 20
1098.675
 10
2866.05
 20
1097.175
 10
2864.8
 20
1096.175
 10
2863.3
 20
1095.425
 10
2861.55
 20
1094.925
 10
2859.55
 20
1094.675
 10
2849.05
 20
1094.675
  0
LWPOLYLINE
  5
64
330
1F
100
AcDbEntity
  8
text2
100
AcDbPolyline
 90
        8
 70
     1
 43
0.0
 10
2824.05
 20
1119.675
 10
2829.55
 20
1119.675
 10
2834.55
 20
1100.925
 10
2839.55
 20
1119.675
 10
2844.8
 20
1119.675
 10
2837.05
 20
1094.675
 10
2832.05
 20
1094.675
 10
2824.05
 20
1119.675
  0
LWPOLYLINE
  5
65
330
1F
100
AcDbEntity
  8
text2
100
AcDbPolyline
 90
       67
 70
     1
 43
0.0
 10
2769.3
 20
1113.425
 10
2769.8
 20
1111.675
 10
2764.8
 20
1111.675
 10
2764.3
 20
1112.925
 10
2763.55
 20
1114.175
 10
2762.55
 20
1114.925
 10
2761.3
 20
1115.675
 10
2759.8
 20
1115.925
 10
2758.55
 20
1115.675
 10
2757.3
 20
1115.175
 10
2756.3
 20
1114.425
 10
2755.3
 20
1113.175
 10
2754.8
 20
1111.925
 10
2754.3
 20
1110.425
 10
2754.05
 20
1108.925
 10
2754.05
 20
1105.425
 10
2754.3
 20
1103.925
 10
2754.8
 20
1102.425
 10
2755.3
 20
1101.175
 10
2756.3
 20
1099.925
 10
2757.3
 20
1099.175
 10
2758.55
 20
1098.675
 10
2759.8
 20
1098.425
 10
2761.3
 20
1098.675
 10
2762.3
 20
1099.175
 10
2763.3
 20
1099.925
 10
2764.05
 20
1100.925
 10
2764.55
 20
1102.175
 10
2764.8
 20
1103.425
 10
2760.3
 20
1103.425
 10
2760.3
 20
1107.175
 10
2769.8
 20
1107.175
 10
2769.8
 20
1094.675
 10
2767.05
 20
1094.675
 10
2766.05
 20
1097.675
 10
2765.3
 20
1096.425
 10
2764.05
 20
1095.675
 10
2762.8
 20
1094.925
 10
2761.3
 20
1094.675
 10
2759.8
 20
1094.425
 10
2757.8
 20
1094.675
 10
2756.05
 20
1094.925
 10
2754.3
 20
1095.925
 10
2753.05
 20
1096.925
 10
2751.8
 20
1098.175
 10
2750.8
 20
1099.925
 10
2750.05
 20
1101.425
 10
2749.55
 20
1103.425
 10
2749.3
 20
1105.175
 10
2749.05
 20
1107.175
 10
2749.3
 20
1109.175
 10
2749.55
 20
1110.925
 10
2750.05
 20
1112.925
 10
2750.8
 20
1114.425
 10
2751.8
 20
1116.175
 10
2753.05
 20
1117.425
 10
2754.3
 20
1118.425
 10
2756.05
 20
1119.425
 10
2757.8
 20
1119.925
 10
2759.8
 20
1120.175
 10
2761.8
 20
1119.925
 10
2763.3
 20
1119.425
 10
2765.05
 20
1118.675
 10
2766.3
 20
1117.675
 10
2767.55
 20
1116.425
 10
2768.55
 20
1115.175
 10
2769.3
 20
1113.425
  0
LWPOLYLINE
  5
66
330
1F
100
AcDbEntity
  8
text2
100
AcDbPolyline
 90
        8
 70
     1
 43
0.0
 10
2724.05
 20
1119.675
 10
2729.55
 20
1119.675
 10
2734.55
 20
1100.925
 10
2739.55
 20
1119.675
 10
2744.8
 20
1119.675
 10
2737.05
 20
1094.675
 10
2732.05
 20
1094.675
 10
2724.05
 20
1119.675
  0
LWPOLYLINE
  5
67
330
1F
100
AcDbEntity
  8
text2
100
AcDbPolyline
 90
       13
 70
     1
 43
0.0
 10
2666.0
 20
1118.0
 10
2671.25
 20
1118.0
 10
2663.75
 20
1105.5
 10
2671.25
 20
1093.0
 10
2666.0
 20
1093.0
 10
2661.0
 20
1101.25
 10
2656.0
 20
1093.0
 10
2650.5
 20
1093.0
 10
2658.0
 20
1105.5
 10
2650.5
 20
1118.0
 10
2656.0
 20
1118.0
 10
2661.0
 20
1109.75
 10
2666.0
 20
1118.0
  0
LWPOLYLINE
  5
68
330
1F
100
AcDbEntity
  8
text2
100
AcDbPolyline
 90
       23
 70
     1
 43
0.0
 10
2625.5
 20
1093.0
 10
2625.5
 20
1118.0
 10
2636.0
 20
1118.0
 10
2638.0
 20
1117.75
 10
2639.75
 20
1117.25
 10
2641.25
 20
1116.5
 10
2642.5
 20
1115.5
 10
2643.75
 20
1114.0
 10
2644.5
 20
1112.5
 10
2645.25
 20
1111.0
 10
2645.75
 20
1109.25
 10
2646.25
 20
1107.25
 10
2646.25
 20
1103.75
 10
2645.75
 20
1101.75
 10
2645.25
 20
1100.0
 10
2644.5
 20
1098.5
 10
2643.75
 20
1097.0
 10
2642.5
 20
1095.5
 10
2641.25
 20
1094.5
 10
2639.75
 20
1093.75
 10
2638.0
 20
1093.25
 10
2636.0
 20
1093.0
 10
2625.5
 20
1093.0
  0
LWPOLYLINE
  5
69
330
1F
100
AcDbEntity
  8
text2
100
AcDbPolyline
 90
        8
 70
     1
 43
0.0
 10
2600.5
 20
1118.0
 10
2606.0
 20
1118.0
 10
2611.0
 20
1099.25
 10
2616.0
 20
1118.0
 10
2621.25
 20
1118.0
 10
2613.5
 20
1093.0
 10
2608.5
 20
1093.0
 10
2600.5
 20
1118.0
  0
LWPOLYLINE
  5
6A
330
1F
100
AcDbEntity
  8
text2
100
AcDbPolyline
 90
       57
 70
     1
 43
0.0
 10
2525.5
 20
1093.0
 10
2525.5
 20
1095.0
 10
2525.75
 20
1097.5
 10
2526.75
 20
1099.75
 10
2528.0
 20
1101.5
 10
2529.5
 20
1103.0
 10
2531.25
 20
1104.0
 10
2533.0
 20
1105.0
 10
2534.75
 20
1106.0
 10
2538.5
 20
1107.5
 10
2539.5
 20
1108.0
 10
2540.25
 20
1108.75
 10
2541.0
 20
1109.75
 10
2541.25
 20
1111.0
 10
2541.0
 20
1112.25
 10
2540.25
 20
1113.0
 10
2539.25
 20
1113.75
 10
2538.25
 20
1114.0
 10
2537.0
 20
1114.25
 10
2536.0
 20
1114.25
 10
2534.5
 20
1114.0
 10
2533.25
 20
1113.75
 10
2532.0
 20
1113.0
 10
2531.0
 20
1112.25
 10
2530.5
 20
1111.0
 10
2530.0
 20
1109.75
 10
2525.5
 20
1109.75
 10
2525.75
 20
1111.5
 10
2526.5
 20
1113.25
 10
2527.75
 20
1114.75
 10
2529.0
 20
1116.0
 10
2530.5
 20
1117.0
 10
2532.25
 20
1117.75
 10
2534.0
 20
1118.25
 10
2536.0
 20
1118.5
 10
2537.5
 20
1118.25
 10
2539.5
 20
1118.0
 10
2541.25
 20
1117.5
 10
2542.75
 20
1116.5
 10
2544.25
 20
1115.5
 10
2545.25
 20
1114.25
 10
2546.0
 20
1112.5
 10
2546.25
 20
1110.5
 10
2546.0
 20
1108.75
 10
2545.25
 20
1107.5
 10
2544.25
 20
1106.25
 10
2543.0
 20
1105.25
 10
2541.75
 20
1104.75
 10
2536.25
 20
1102.25
 10
2535.25
 20
1101.75
 10
2534.0
 20
1101.0
 10
2532.75
 20
1100.0
 10
2531.75
 20
1098.75
 10
2531.0
 20
1097.25
 10
2546.25
 20
1097.25
 10
2546.25
 20
1093.0
 10
2525.5
 20
1093.0
  0
LWPOLYLINE
  5
6B
330
1F
100
AcDbEntity
  8
text2
100
AcDbPolyline
 90
       13
 70
     1
 43
0.0
 10
2516.0
 20
1118.0
 10
2521.25
 20
1118.0
 10
2513.75
 20
1105.5
 10
2521.25
 20
1093.0
 10
2516.0
 20
1093.0
 10
2511.0
 20
1101.25
 10
2506.0
 20
1093.0
 10
2500.5
 20
1093.0
 10
2508.0
 20
1105.5
 10
2500.5
 20
1118.0
 10
2506.0
 20
1118.0
 10
2511.0
 20
1109.75
 10
2516.0
 20
1118.0
  0
LWPOLYLINE
  5
6C
330
1F
100
AcDbEntity
  8
text2
100
AcDbPolyline
 90
       67
 70
     1
 43
0.0
 10
2495.75
 20
1111.75
 10
2496.25
 20
1110.0
 10
2491.25
 20
1110.0
 10
2490.75
 20
1111.25
 10
2490.0
 20
1112.5
 10
2489.0
 20
1113.25
 10
2487.75
 20
1114.0
 10
2486.25
 20
1114.25
 10
2485.0
 20
1114.0
 10
2483.75
 20
1113.5
 10
2482.75
 20
1112.75
 10
2481.75
 20
1111.5
 10
2481.25
 20
1110.25
 10
2480.75
 20
1108.75
 10
2480.5
 20
1107.25
 10
2480.5
 20
1103.75
 10
2480.75
 20
1102.25
 10
2481.25
 20
1100.75
 10
2481.75
 20
1099.5
 10
2482.75
 20
1098.25
 10
2483.75
 20
1097.5
 10
2485.0
 20
1097.0
 10
2486.25
 20
1096.75
 10
2487.75
 20
1097.0
 10
2488.75
 20
1097.5
 10
2489.75
 20
1098.25
 10
2490.5
 20
1099.25
 10
2491.0
 20
1100.5
 10
2491.25
 20
1101.75
 10
2486.75
 20
1101.75
 10
2486.75
 20
1105.5
 10
2496.25
 20
1105.5
 10
2496.25
 20
1093.0
 10
2493.5
 20
1093.0
 10
2492.5
 20
1096.0
 10
2491.75
 20
1094.75
 10
2490.5
 20
1094.0
 10
2489.25
 20
1093.25
 10
2487.75
 20
1093.0
 10
2486.25
 20
1092.75
 10
2484.25
 20
1093.0
 10
2482.5
 20
1093.25
 10
2480.75
 20
1094.25
 10
2479.5
 20
1095.25
 10
2478.25
 20
1096.5
 10
2477.25
 20
1098.25
 10
2476.5
 20
1099.75
 10
2476.0
 20
1101.75
 10
2475.75
 20
1103.5
 10
2475.5
 20
1105.5
 10
2475.75
 20
1107.5
 10
2476.0
 20
1109.25
 10
2476.5
 20
1111.25
 10
2477.25
 20
1112.75
 10
2478.25
 20
1114.5
 10
2479.5
 20
1115.75
 10
2480.75
 20
1116.75
 10
2482.5
 20
1117.75
 10
2484.25
 20
1118.25
 10
2486.25
 20
1118.5
 10
2488.25
 20
1118.25
 10
2489.75
 20
1117.75
 10
2491.5
 20
1117.0
 10
2492.75
 20
1116.0
 10
2494.0
 20
1114.75
 10
2495.0
 20
1113.5
 10
2495.75
 20
1111.75
  0
LWPOLYLINE
  5
6D
330
1F
100
AcDbEntity
  8
text2
100
AcDbPolyline
 90
        8
 70
     1
 43
0.0
 10
2450.5
 20
1118.0
 10
2456.0
 20
1118.0
 10
2461.0
 20
1099.25
 10
2466.0
 20
1118.0
 10
2471.25
 20
1118.0
 10
2463.5
 20
1093.0
 10
2458.5
 20
1093.0
 10
2450.5
 20
1118.0
  0
LWPOLYLINE
  5
6E
330
1F
100
AcDbEntity
  8
text2
100
AcDbPolyline
 90
       80
 70
     1
 43
0.0
 10
2395.75
 20
1103.0
 10
2396.25
 20
1101.75
 10
2396.25
 20
1100.5
 10
2396.0
 20
1098.5
 10
2395.5
 20
1097.0
 10
2394.25
 20
1095.5
 10
2393.0
 20
1094.5
 10
2391.5
 20
1093.75
 10
2389.75
 20
1093.0
 10
2388.0
 20
1093.0
 10
2386.25
 20
1092.75
 10
2384.5
 20
1093.0
 10
2382.5
 20
1093.25
 10
2380.75
 20
1094.0
 10
2379.25
 20
1095.0
 10
2378.0
 20
1096.25
 10
2376.75
 20
1097.75
 10
2376.0
 20
1099.5
 10
2375.5
 20
1101.25
 10
2380.0
 20
1101.25
 10
2380.5
 20
1100.0
 10
2381.25
 20
1098.75
 10
2382.25
 20
1097.75
 10
2383.5
 20
1097.25
 10
2385.0
 20
1096.75
 10
2387.5
 20
1096.75
 10
2388.75
 20
1097.25
 10
2390.0
 20
1097.75
 10
2391.0
 20
1098.5
 10
2391.5
 20
1099.5
 10
2391.75
 20
1101.0
 10
2391.5
 20
1102.0
 10
2390.75
 20
1103.0
 10
2389.75
 20
1103.75
 10
2388.75
 20
1104.25
 10
2382.5
 20
1104.25
 10
2382.5
 20
1107.5
 10
2386.75
 20
1107.5
 10
2387.75
 20
1107.75
 10
2388.75
 20
1108.25
 10
2389.75
 20
1108.75
 10
2390.25
 20
1109.75
 10
2390.5
 20
1111.0
 10
2390.25
 20
1112.0
 10
2389.5
 20
1113.0
 10
2388.75
 20
1113.5
 10
2387.5
 20
1114.0
 10
2386.5
 20
1114.25
 10
2384.25
 20
1114.25
 10
2383.0
 20
1113.75
 10
2382.0
 20
1113.25
 10
2381.0
 20
1112.5
 10
2380.25
 20
1111.5
 10
2380.0
 20
1110.0
 10
2376.0
 20
1110.0
 10
2376.25
 20
1112.0
 10
2377.0
 20
1113.5
 10
2378.0
 20
1115.0
 10
2379.25
 20
1116.25
 10
2380.75
 20
1117.25
 10
2382.5
 20
1117.75
 10
2384.25
 20
1118.25
 10
2386.0
 20
1118.5
 10
2387.5
 20
1118.25
 10
2389.0
 20
1118.0
 10
2390.5
 20
1117.5
 10
2392.0
 20
1116.75
 10
2393.25
 20
1115.75
 10
2394.25
 20
1114.5
 10
2394.75
 20
1113.0
 10
2395.0
 20
1111.25
 10
2395.0
 20
1110.0
 10
2394.5
 20
1108.75
 10
2393.75
 20
1107.75
 10
2392.75
 20
1107.0
 10
2391.75
 20
1106.25
 10
2393.0
 20
1105.75
 10
2394.0
 20
1105.0
 10
2395.0
 20
1104.25
 10
2395.75
 20
1103.0
  0
LWPOLYLINE
  5
6F
330
1F
100
AcDbEntity
  8
text2
100
AcDbPolyline
 90
       13
 70
     1
 43
0.0
 10
2366.0
 20
1118.0
 10
2371.25
 20
1118.0
 10
2363.75
 20
1105.5
 10
2371.25
 20
1093.0
 10
2366.0
 20
1093.0
 10
2361.0
 20
1101.25
 10
2356.0
 20
1093.0
 10
2350.5
 20
1093.0
 10
2358.0
 20
1105.5
 10
2350.5
 20
1118.0
 10
2356.0
 20
1118.0
 10
2361.0
 20
1109.75
 10
2366.0
 20
1118.0
  0
LWPOLYLINE
  5
70
330
1F
100
AcDbEntity
  8
text2
100
AcDbPolyline
 90
       67
 70
     1
 43
0.0
 10
2345.75
 20
1111.75
 10
2346.25
 20
1110.0
 10
2341.25
 20
1110.0
 10
2340.75
 20
1111.25
 10
2340.0
 20
1112.5
 10
2339.0
 20
1113.25
 10
2337.75
 20
1114.0
 10
2336.25
 20
1114.25
 10
2335.0
 20
1114.0
 10
2333.75
 20
1113.5
 10
2332.75
 20
1112.75
 10
2331.75
 20
1111.5
 10
2331.25
 20
1110.25
 10
2330.75
 20
1108.75
 10
2330.5
 20
1107.25
 10
2330.5
 20
1103.75
 10
2330.75
 20
1102.25
 10
2331.25
 20
1100.75
 10
2331.75
 20
1099.5
 10
2332.75
 20
1098.25
 10
2333.75
 20
1097.5
 10
2335.0
 20
1097.0
 10
2336.25
 20
1096.75
 10
2337.75
 20
1097.0
 10
2338.75
 20
1097.5
 10
2339.75
 20
1098.25
 10
2340.5
 20
1099.25
 10
2341.0
 20
1100.5
 10
2341.25
 20
1101.75
 10
2336.75
 20
1101.75
 10
2336.75
 20
1105.5
 10
2346.25
 20
1105.5
 10
2346.25
 20
1093.0
 10
2343.5
 20
1093.0
 10
2342.5
 20
1096.0
 10
2341.75
 20
1094.75
 10
2340.5
 20
1094.0
 10
2339.25
 20
1093.25
 10
2337.75
 20
1093.0
 10
2336.25
 20
1092.75
 10
2334.25
 20
1093.0
 10
2332.5
 20
1093.25
 10
2330.75
 20
1094.25
 10
2329.5
 20
1095.25
 10
2328.25
 20
1096.5
 10
2327.25
 20
1098.25
 10
2326.5
 20
1099.75
 10
2326.0
 20
1101.75
 10
2325.75
 20
1103.5
 10
2325.5
 20
1105.5
 10
2325.75
 20
1107.5
 10
2326.0
 20
1109.25
 10
2326.5
 20
1111.25
 10
2327.25
 20
1112.75
 10
2328.25
 20
1114.5
 10
2329.5
 20
1115.75
 10
2330.75
 20
1116.75
 10
2332.5
 20
1117.75
 10
2334.25
 20
1118.25
 10
2336.25
 20
1118.5
 10
2338.25
 20
1118.25
 10
2339.75
 20
1117.75
 10
2341.5
 20
1117.0
 10
2342.75
 20
1116.0
 10
2344.0
 20
1114.75
 10
2345.0
 20
1113.5
 10
2345.75
 20
1111.75
  0
LWPOLYLINE
  5
71
330
1F
100
AcDbEntity
  8
text2
100
AcDbPolyline
 90
        8
 70
     1
 43
0.0
 10
2300.5
 20
1118.0
 10
2306.0
 20
1118.0
 10
2311.0
 20
1099.25
 10
2316.0
 20
1118.0
 10
2321.25
 20
1118.0
 10
2313.5
 20
1093.0
 10
2308.5
 20
1093.0
 10
2300.5
 20
1118.0
  0
LWPOLYLINE
  5
72
330
1F
100
AcDbEntity
  8
text2
100
AcDbPolyline
 90
       51
 70
     1
 43
0.0
 10
281.8
 20
303.0
 10
280.0
 20
303.2
 10
276.8
 20
303.6
 10
270.4
 20
304.8
 10
263.2
 20
306.4
 10
256.4
 20
308.8
 10
250.0
 20
311.6
 10
244.4
 20
314.8
 10
239.2
 20
318.4
 10
234.4
 20
322.0
 10
230.8
 20
326.0
 10
227.6
 20
330.4
 10
225.2
 20
334.4
 10
224.0
 20
339.2
 10
223.6
 20
343.6
 10
224.0
 20
347.2
 10
224.8
 20
351.2
 10
225.6
 20
353.2
 10
226.4
 20
354.8
 10
230.0
 20
359.6
 10
231.6
 20
360.8
 10
233.6
 20
362.0
 10
235.2
 20
363.2
 10
240.0
 20
365.6
 10
236.8
 20
364.4
 10
231.2
 20
362.0
 10
228.4
 20
360.4
 10
226.0
 20
358.4
 10
223.6
 20
356.8
 10
219.6
 20
352.8
 10
218.0
 20
350.8
 10
216.8
 20
348.4
 10
216.0
 20
346.4
 10
215.2
 20
344.0
 10
214.8
 20
340.0
 10
215.2
 20
335.6
 10
216.8
 20
331.2
 10
218.8
 20
326.8
 10
222.0
 20
322.4
 10
225.6
 20
318.4
 10
230.4
 20
314.8
 10
235.6
 20
311.2
 10
241.2
 20
308.0
 10
247.6
 20
305.6
 10
254.4
 20
303.2
 10
261.6
 20
301.2
 10
268.0
 20
300.0
 10
272.4
 20
299.6
 10
276.4
 20
299.2
 10
281.8
 20
299.2
 10
281.8
 20
303.0
  0
LWPOLYLINE
  5
73
330
1F
100
AcDbEntity
  8
text2
100
AcDbPolyline
 90
       95
 70
     1
 43
0.0
 10
281.8
 20
364.2
 10
279.6
 20
366.4
 10
278.4
 20
367.2
 10
276.8
 20
368.4
 10
274.8
 20
369.2
 10
273.2
 20
370.0
 10
271.6
 20
370.4
 10
267.6
 20
371.2
 10
259.6
 20
371.2
 10
255.6
 20
370.4
 10
253.2
 20
369.6
 10
253.6
 20
369.6
 10
255.2
 20
370.0
 10
257.2
 20
370.0
 10
258.8
 20
370.4
 10
260.4
 20
370.4
 10
262.0
 20
370.0
 10
263.6
 20
370.0
 10
265.2
 20
369.6
 10
266.4
 20
369.2
 10
268.0
 20
368.4
 10
269.2
 20
368.0
 10
270.8
 20
367.2
 10
273.2
 20
365.6
 10
276.8
 20
362.0
 10
278.4
 20
359.6
 10
279.2
 20
358.0
 10
280.0
 20
356.8
 10
280.8
 20
355.2
 10
280.8
 20
354.0
 10
273.6
 20
353.2
 10
270.4
 20
352.4
 10
266.8
 20
351.6
 10
263.6
 20
350.8
 10
260.4
 20
349.6
 10
257.2
 20
348.8
 10
254.4
 20
347.6
 10
251.6
 20
346.0
 10
248.8
 20
344.8
 10
246.4
 20
343.2
 10
248.4
 20
344.0
 10
250.8
 20
345.2
 10
253.2
 20
346.0
 10
255.2
 20
346.8
 10
257.6
 20
347.2
 10
260.4
 20
348.0
 10
262.8
 20
348.4
 10
268.4
 20
349.2
 10
271.2
 20
349.2
 10
274.0
 20
349.6
 10
279.6
 20
350.0
 10
281.6
 20
350.0
 10
281.2
 20
349.2
 10
280.0
 20
344.0
 10
279.6
 20
338.8
 10
279.6
 20
333.2
 10
280.0
 20
330.0
 10
277.6
 20
331.2
 10
275.6
 20
331.6
 10
274.0
 20
332.4
 10
272.0
 20
332.4
 10
270.4
 20
332.8
 10
268.4
 20
332.8
 10
266.4
 20
332.4
 10
264.8
 20
332.4
 10
262.8
 20
331.6
 10
261.2
 20
331.2
 10
259.2
 20
330.4
 10
257.6
 20
329.6
 10
255.6
 20
328.4
 10
254.0
 20
327.6
 10
252.0
 20
326.4
 10
249.2
 20
323.6
 10
250.4
 20
324.4
 10
252.0
 20
325.6
 10
253.6
 20
326.4
 10
254.8
 20
327.2
 10
258.0
 20
328.0
 10
259.2
 20
328.4
 10
260.8
 20
328.8
 10
262.4
 20
328.8
 10
264.0
 20
329.2
 10
265.6
 20
328.8
 10
266.8
 20
328.8
 10
268.4
 20
328.4
 10
270.0
 20
328.4
 10
271.6
 20
328.0
 10
272.8
 20
327.6
 10
275.2
 20
326.0
 10
276.4
 20
325.6
 10
277.6
 20
324.4
 10
280.0
 20
322.8
 10
280.8
 20
321.6
 10
281.8
 20
320.6
 10
281.8
 20
364.2
  0
LWPOLYLINE
  5
74
330
1F
100
AcDbEntity
  8
text2
100
AcDbPolyline
 90
      142
 70
     1
 43
0.0
 10
348.8
 20
359.2
 10
346.8
 20
359.6
 10
335.6
 20
359.6
 10
330.8
 20
358.8
 10
328.0
 20
358.0
 10
325.6
 20
357.6
 10
323.2
 20
356.8
 10
320.8
 20
355.6
 10
318.4
 20
354.8
 10
316.4
 20
353.6
 10
313.6
 20
352.0
 10
311.2
 20
350.4
 10
309.6
 20
350.8
 10
304.4
 20
352.4
 10
298.4
 20
353.6
 10
292.8
 20
354.0
 10
293.2
 20
356.0
 10
297.2
 20
364.8
 10
299.6
 20
368.0
 10
303.2
 20
371.6
 10
304.8
 20
372.8
 10
306.0
 20
373.6
 10
307.6
 20
374.8
 10
309.2
 20
375.6
 10
313.2
 20
377.2
 10
315.2
 20
377.6
 10
317.2
 20
378.4
 10
319.2
 20
378.4
 10
321.6
 20
378.8
 10
324.0
 20
378.8
 10
321.2
 20
379.2
 10
313.6
 20
379.2
 10
311.2
 20
378.8
 10
304.0
 20
376.4
 10
299.2
 20
374.0
 10
296.8
 20
372.4
 10
294.8
 20
370.8
 10
291.2
 20
367.6
 10
288.0
 20
363.2
 10
285.6
 20
359.6
 10
284.8
 20
360.4
 10
284.0
 20
362.0
 10
281.8
 20
364.2
 10
281.8
 20
320.6
 10
282.0
 20
320.4
 10
282.8
 20
319.2
 10
283.2
 20
318.8
 10
283.6
 20
317.6
 10
286.0
 20
312.8
 10
288.8
 20
309.2
 10
290.4
 20
306.8
 10
294.4
 20
302.8
 10
295.2
 20
302.4
 10
286.8
 20
302.4
 10
283.6
 20
302.8
 10
281.8
 20
303.0
 10
281.8
 20
299.2
 10
284.4
 20
299.2
 10
296.4
 20
300.4
 10
297.2
 20
300.8
 10
298.8
 20
299.6
 10
300.8
 20
298.0
 10
303.2
 20
297.2
 10
305.6
 20
296.0
 10
310.4
 20
294.4
 10
313.2
 20
294.0
 10
315.6
 20
294.0
 10
311.6
 20
294.8
 10
307.6
 20
296.4
 10
306.0
 20
297.2
 10
304.4
 20
298.4
 10
302.0
 20
300.8
 10
301.6
 20
301.6
 10
303.6
 20
302.0
 10
306.8
 20
303.2
 10
310.0
 20
304.0
 10
312.8
 20
305.2
 10
310.4
 20
304.4
 10
307.6
 20
303.6
 10
302.0
 20
302.8
 10
301.2
 20
302.8
 10
300.8
 20
303.2
 10
299.6
 20
306.4
 10
299.2
 20
309.6
 10
298.8
 20
313.2
 10
299.2
 20
317.2
 10
300.0
 20
321.2
 10
301.2
 20
325.2
 10
302.8
 20
329.2
 10
304.8
 20
333.2
 10
307.2
 20
337.2
 10
309.6
 20
340.8
 10
311.6
 20
343.2
 10
312.4
 20
342.4
 10
316.4
 20
340.0
 10
319.6
 20
337.2
 10
322.4
 20
334.0
 10
324.4
 20
330.8
 10
325.6
 20
327.2
 10
326.0
 20
324.4
 10
326.0
 20
322.8
 10
325.6
 20
320.8
 10
325.6
 20
319.2
 10
325.2
 20
318.0
 10
323.6
 20
314.8
 10
322.8
 20
313.6
 10
322.0
 20
312.0
 10
320.8
 20
310.8
 10
319.2
 20
309.6
 10
317.6
 20
308.0
 10
316.0
 20
306.8
 10
318.4
 20
308.4
 10
320.4
 20
309.6
 10
322.4
 20
311.6
 10
324.4
 20
313.2
 10
326.0
 20
314.8
 10
329.2
 20
318.8
 10
330.4
 20
320.4
 10
332.0
 20
324.4
 10
332.4
 20
326.4
 10
332.4
 20
328.4
 10
332.0
 20
331.6
 10
330.8
 20
335.2
 10
328.8
 20
338.4
 10
326.4
 20
341.6
 10
322.8
 20
344.4
 10
319.2
 20
346.8
 10
316.8
 20
348.0
 10
320.0
 20
350.4
 10
322.4
 20
352.0
 10
324.4
 20
353.2
 10
326.4
 20
354.0
 10
328.4
 20
355.2
 10
330.0
 20
356.0
 10
332.0
 20
356.4
 10
334.0
 20
357.2
 10
336.0
 20
357.6
 10
338.0
 20
358.4
 10
339.6
 20
358.8
 10
341.6
 20
358.8
 10
343.6
 20
359.2
 10
348.8
 20
359.2
  0
LWPOLYLINE
  5
75
330
1F
100
AcDbEntity
  8
text2
100
AcDbPolyline
 90
       74
 70
     1
 43
0.0
 10
383.2
 20
334.4
 10
383.6
 20
331.2
 10
383.6
 20
325.6
 10
381.6
 20
319.2
 10
378.4
 20
313.2
 10
374.0
 20
307.6
 10
368.4
 20
302.4
 10
361.6
 20
297.2
 10
353.6
 20
293.2
 10
344.8
 20
289.2
 10
335.2
 20
286.0
 10
324.8
 20
283.6
 10
314.0
 20
282.0
 10
302.4
 20
280.8
 10
292.4
 20
280.8
 10
286.0
 20
281.2
 10
279.6
 20
281.6
 10
273.2
 20
282.0
 10
267.2
 20
283.2
 10
261.2
 20
284.4
 10
255.2
 20
285.6
 10
249.6
 20
287.2
 10
244.4
 20
288.8
 10
239.2
 20
290.8
 10
234.4
 20
292.8
 10
229.6
 20
295.2
 10
225.6
 20
297.2
 10
229.6
 20
295.6
 10
233.2
 20
294.0
 10
237.2
 20
292.4
 10
241.6
 20
290.8
 10
245.6
 20
289.6
 10
250.0
 20
288.8
 10
254.8
 20
287.6
 10
259.2
 20
286.8
 10
264.0
 20
286.4
 10
269.2
 20
286.0
 10
274.4
 20
285.6
 10
289.6
 20
285.6
 10
301.2
 20
286.8
 10
312.0
 20
288.4
 10
322.4
 20
290.8
 10
332.0
 20
294.0
 10
340.8
 20
298.0
 10
348.8
 20
302.0
 10
355.6
 20
306.8
 10
361.2
 20
312.4
 10
365.6
 20
318.0
 10
368.8
 20
324.0
 10
370.8
 20
330.4
 10
371.2
 20
335.6
 10
370.8
 20
338.8
 10
370.4
 20
341.6
 10
370.0
 20
344.4
 10
369.2
 20
347.2
 10
368.0
 20
350.0
 10
366.4
 20
352.8
 10
364.8
 20
355.2
 10
362.8
 20
357.6
 10
360.8
 20
360.0
 10
358.0
 20
362.4
 10
355.2
 20
364.4
 10
352.0
 20
366.8
 10
356.0
 20
364.4
 10
360.4
 20
362.0
 10
364.0
 20
359.6
 10
367.6
 20
356.8
 10
371.2
 20
354.0
 10
374.0
 20
350.8
 10
376.8
 20
347.6
 10
379.2
 20
344.8
 10
380.8
 20
341.2
 10
382.4
 20
338.0
 10
383.2
 20
334.4
  0
LWPOLYLINE
  5
76
330
1F
100
AcDbEntity
  8
text2
100
AcDbPolyline
 90
       26
 70
     1
 43
0.0
 10
2900.0
 20
463.5
 10
2900.0
 20
471.8
 10
2877.5
 20
507.0
 10
2869.1
 20
507.0
 10
2864.5
 20
507.7
 10
2859.6
 20
510.2
 10
2855.7
 20
514.1
 10
2853.1
 20
519.1
 10
2852.3
 20
524.5
 10
2853.2
 20
529.9
 10
2855.7
 20
534.9
 10
2859.6
 20
538.8
 10
2864.5
 20
541.3
 10
2869.1
 20
542.0
 10
2935.0
 20
542.0
 10
2935.0
 20
463.5
 10
2934.3
 20
458.9
 10
2931.8
 20
454.0
 10
2927.9
 20
450.1
 10
2922.9
 20
447.5
 10
2917.5
 20
446.7
 10
2912.1
 20
447.6
 10
2907.1
 20
450.1
 10
2903.2
 20
454.0
 10
2900.7
 20
458.9
 10
2900.0
 20
463.5
  0
LWPOLYLINE
  5
77
330
1F
100
AcDbEntity
  8
text2
100
AcDbPolyline
 90
       26
 70
     1
 43
0.0
 10
2852.3
 20
697.5
 10
2853.1
 20
702.9
 10
2855.7
 20
707.9
 10
2859.6
 20
711.8000000000001
 10
2864.5
 20
714.3000000000001
 10
2869.1
 20
715.0
 10
2877.5
 20
715.0
 10
2900.0
 20
750.2
 10
2900.0
 20
758.5
 10
2900.7
 20
763.1
 10
2903.2
 20
768.0
 10
2907.1
 20
771.9
 10
2912.1
 20
774.4
 10
2917.5
 20
775.3000000000001
 10
2922.9
 20
774.5
 10
2927.9
 20
771.9
 10
2931.8
 20
768.0
 10
2934.3
 20
763.1
 10
2935.0
 20
758.5
 10
2935.0
 20
680.0
 10
2869.1
 20
680.0
 10
2864.5
 20
680.7
 10
2859.6
 20
683.2
 10
2855.7
 20
687.1
 10
2853.2
 20
692.1
 10
2852.3
 20
697.5
  0
LWPOLYLINE
  5
78
330
1F
100
AcDbEntity
  8
text2
100
AcDbPolyline
 90
       27
 70
     1
 43
0.0
 10
173.3
 20
639.6
 10
174.1
 20
634.2
 10
173.2
 20
628.8000000000001
 10
170.7
 20
623.8000000000001
 10
166.8
 20
619.9
 10
161.9
 20
617.4
 10
157.3
 20
616.7
 10
65.0
 20
616.7
 10
65.0
 20
735.2
 10
65.7
 20
739.8000000000001
 10
68.2
 20
744.7
 10
72.10000000000001
 20
748.6
 10
77.10000000000001
 20
751.2
 10
82.5
 20
752.0
 10
87.9
 20
751.1
 10
92.9
 20
748.6
 10
96.8
 20
744.7
 10
99.3
 20
739.8000000000001
 10
100.0
 20
735.2
 10
100.0
 20
726.9
 10
148.9
 20
726.9
 10
148.9
 20
651.7
 10
157.3
 20
651.7
 10
161.9
 20
651.0
 10
166.8
 20
648.5
 10
170.7
 20
644.6
 10
173.3
 20
639.6
  0
LWPOLYLINE
  5
79
330
1F
100
AcDbEntity
  8
text2
100
AcDbPolyline
 90
       27
 70
     1
 43
0.0
 10
65.0
 20
360.2
 10
65.0
 20
478.7
 10
157.3
 20
478.7
 10
161.9
 20
478.0
 10
166.8
 20
475.5
 10
170.7
 20
471.6
 10
173.2
 20
466.6
 10
174.1
 20
461.2
 10
173.3
 20
455.8
 10
170.7
 20
450.8
 10
166.8
 20
446.9
 10
161.9
 20
444.4
 10
157.3
 20
443.7
 10
148.9
 20
443.7
 10
148.9
 20
368.5
 10
100.0
 20
368.5
 10
100.0
 20
360.2
 10
99.3
 20
355.6
 10
96.8
 20
350.7
 10
92.9
 20
346.8
 10
87.9
 20
344.3
 10
82.5
 20
343.4
 10
77.10000000000001
 20
344.2
 10
72.10000000000001
 20
346.8
 10
68.2
 20
350.7
 10
65.7
 20
355.6
 10
65.0
 20
360.2
  0
LWPOLYLINE
  5
7A
330
1F
100
AcDbEntity
  8
text2
100
AcDbPolyline
 90
       11
 70
     1
 43
0.0
 10
1196.428
 20
1096.427
 10
1196.428
 20
1100.0
 10
1200.0
 20
1100.0
 10
1200.0
 20
1117.855
 10
1196.428
 20
1117.855
 10
1200.0
 20
1121.427
 10
1203.57
 20
1121.427
 10
1203.57
 20
1100.0
 10
1207.142
 20
1100.0
 10
1207.142
 20
1096.427
 10
1196.428
 20
1096.427
  0
LWPOLYLINE
  5
7B
330
1F
100
AcDbEntity
  8
text2
100
AcDbPolyline
 90
       11
 70
     1
 43
0.0
 10
2392.14
 20
1007.145
 10
2392.14
 20
1014.29
 10
2399.285
 20
1014.29
 10
2399.285
 20
1050.0
 10
2392.14
 20
1050.0
 10
2399.285
 20
1057.145
 10
2406.425
 20
1057.145
 10
2406.425
 20
1014.29
 10
2413.57
 20
1014.29
 10
2413.57
 20
1007.145
 10
2392.14
 20
1007.145
  0
LWPOLYLINE
  5
7C
330
1F
100
AcDbEntity
  8
text2
100
AcDbPolyline
 90
        7
 70
     1
 43
0.0
 10
2342.14
 20
1035.715
 10
2360.0
 20
1035.715
 10
2363.57
 20
1039.29
 10
2363.57
 20
1046.43
 10
2360.0
 20
1050.0
 10
2342.14
 20
1050.0
 10
2342.14
 20
1035.715
  0
LWPOLYLINE
  5
7D
330
1F
100
AcDbEntity
  8
text2
100
AcDbPolyline
 90
        9
 70
     1
 43
0.0
 10
2335.0
 20
1007.145
 10
2335.0
 20
1057.145
 10
2363.57
 20
1057.145
 10
2370.71
 20
1050.0
 10
2370.71
 20
1035.715
 10
2363.57
 20
1028.575
 10
2342.14
 20
1028.575
 10
2342.14
 20
1007.145
 10
2335.0
 20
1007.145
  0
LWPOLYLINE
  5
7E
330
1F
100
AcDbEntity
  8
text2
100
AcDbPolyline
 90
       11
 70
     1
 43
0.0
 10
263.74
 20
405.745
 10
263.74
 20
412.89
 10
270.885
 20
412.89
 10
270.885
 20
448.6
 10
263.74
 20
448.6
 10
270.885
 20
455.745
 10
278.025
 20
455.745
 10
278.025
 20
412.89
 10
285.17
 20
412.89
 10
285.17
 20
405.745
 10
263.74
 20
405.745
  0
LWPOLYLINE
  5
7F
330
1F
100
AcDbEntity
  8
text2
100
AcDbPolyline
 90
        7
 70
     1
 43
0.0
 10
213.74
 20
434.315
 10
228.025
 20
434.315
 10
235.17
 20
441.46
 10
235.17
 20
445.03
 10
231.6
 20
448.6
 10
213.74
 20
448.6
 10
213.74
 20
434.315
  0
LWPOLYLINE
  5
80
330
1F
100
AcDbEntity
  8
text2
100
AcDbPolyline
 90
        7
 70
     1
 43
0.0
 10
213.74
 20
412.89
 10
231.6
 20
412.89
 10
235.17
 20
416.46
 10
235.17
 20
420.03
 10
228.025
 20
427.175
 10
213.74
 20
427.175
 10
213.74
 20
412.89
  0
LWPOLYLINE
  5
81
330
1F
100
AcDbEntity
  8
text2
100
AcDbPolyline
 90
       10
 70
     1
 43
0.0
 10
206.6
 20
405.745
 10
206.6
 20
455.745
 10
235.17
 20
455.745
 10
242.31
 20
448.6
 10
242.31
 20
437.89
 10
235.17
 20
430.745
 10
242.31
 20
423.6
 10
242.31
 20
412.89
 10
235.17
 20
405.745
 10
206.6
 20
405.745
  0
LWPOLYLINE
  5
82
330
1F
100
AcDbEntity
  8
text2
100
AcDbPolyline
 90
       19
 70
     1
 43
0.0
 10
783.46
 20
289.89
 10
790.6
 20
293.46
 10
794.1700000000001
 20
289.89
 10
808.46
 20
289.89
 10
812.03
 20
293.46
 10
812.03
 20
304.175
 10
808.46
 20
307.745
 10
783.46
 20
307.745
 10
783.46
 20
332.745
 10
819.1700000000001
 20
332.745
 10
819.1700000000001
 20
325.6
 10
790.6
 20
325.6
 10
790.6
 20
314.89
 10
812.03
 20
314.89
 10
819.1700000000001
 20
307.745
 10
819.1700000000001
 20
289.89
 10
812.03
 20
282.745
 10
790.6
 20
282.745
 10
783.46
 20
289.89
  0
LWPOLYLINE
  5
83
330
1F
100
AcDbEntity
  8
text2
100
AcDbPolyline
 90
       11
 70
     1
 43
0.0
 10
740.6
 20
282.745
 10
740.6
 20
289.89
 10
747.745
 20
289.89
 10
747.745
 20
325.6
 10
740.6
 20
325.6
 10
747.745
 20
332.745
 10
754.885
 20
332.745
 10
754.885
 20
289.89
 10
762.03
 20
289.89
 10
762.03
 20
282.745
 10
740.6
 20
282.745
  0
LWPOLYLINE
  5
84
330
1F
100
AcDbEntity
  8
text2
100
AcDbPolyline
 90
        9
 70
     1
 43
0.0
 10
694.17
 20
293.46
 10
694.17
 20
322.03
 10
697.745
 20
325.6
 10
704.885
 20
325.6
 10
708.46
 20
322.03
 10
708.46
 20
293.46
 10
704.885
 20
289.89
 10
697.745
 20
289.89
 10
694.17
 20
293.46
  0
LWPOLYLINE
  5
85
330
1F
100
AcDbEntity
  8
text2
100
AcDbPolyline
 90
        9
 70
     1
 43
0.0
 10
687.03
 20
289.89
 10
687.03
 20
325.6
 10
694.17
 20
332.745
 10
708.46
 20
332.745
 10
715.6
 20
325.6
 10
715.6
 20
289.89
 10
708.46
 20
282.745
 10
694.17
 20
282.745
 10
687.03
 20
289.89
  0
LWPOLYLINE
  5
86
330
1F
100
AcDbEntity
  8
text2
100
AcDbPolyline
 90
        9
 70
     1
 43
0.0
 10
644.17
 20
293.46
 10
644.17
 20
322.03
 10
647.745
 20
325.6
 10
654.885
 20
325.6
 10
658.46
 20
322.03
 10
658.46
 20
293.46
 10
654.885
 20
289.89
 10
647.745
 20
289.89
 10
644.17
 20
293.46
  0
LWPOLYLINE
  5
87
330
1F
100
AcDbEntity
  8
text2
100
AcDbPolyline
 90
        9
 70
     1
 43
0.0
 10
637.03
 20
289.89
 10
637.03
 20
325.6
 10
644.17
 20
332.745
 10
658.46
 20
332.745
 10
665.6
 20
325.6
 10
665.6
 20
289.89
 10
658.46
 20
282.745
 10
644.17
 20
282.745
 10
637.03
 20
289.89
  0
LWPOLYLINE
  5
88
330
1F
100
AcDbEntity
  8
text2
100
AcDbPolyline
 90
        7
 70
     1
 43
0.0
 10
590.6
 20
311.315
 10
604.885
 20
311.315
 10
612.03
 20
318.46
 10
612.03
 20
322.03
 10
608.46
 20
325.6
 10
590.6
 20
325.6
 10
590.6
 20
311.315
  0
LWPOLYLINE
  5
89
330
1F
100
AcDbEntity
  8
text2
100
AcDbPolyline
 90
        7
 70
     1
 43
0.0
 10
590.6
 20
289.89
 10
608.46
 20
289.89
 10
612.03
 20
293.46
 10
612.03
 20
297.03
 10
604.885
 20
304.175
 10
590.6
 20
304.175
 10
590.6
 20
289.89
  0
LWPOLYLINE
  5
8A
330
1F
100
AcDbEntity
  8
text2
100
AcDbPolyline
 90
       10
 70
     1
 43
0.0
 10
583.46
 20
282.745
 10
583.46
 20
332.745
 10
612.03
 20
332.745
 10
619.17
 20
325.6
 10
619.17
 20
314.89
 10
612.03
 20
307.745
 10
619.17
 20
300.6
 10
619.17
 20
289.89
 10
612.03
 20
282.745
 10
583.46
 20
282.745
  0
LWPOLYLINE
  5
8B
330
1F
100
AcDbEntity
  8
text2
100
AcDbPolyline
 90
       25
 70
     1
 43
0.0
 10
533.46
 20
289.89
 10
540.6
 20
293.46
 10
544.17
 20
289.89
 10
558.46
 20
289.89
 10
562.03
 20
293.46
 10
562.03
 20
300.6
 10
558.46
 20
304.175
 10
540.6
 20
304.175
 10
533.46
 20
311.315
 10
533.46
 20
325.6
 10
540.6
 20
332.745
 10
562.03
 20
332.745
 10
569.17
 20
325.6
 10
562.03
 20
322.03
 10
558.46
 20
325.6
 10
544.17
 20
325.6
 10
540.6
 20
322.03
 10
540.6
 20
314.89
 10
544.17
 20
311.315
 10
562.03
 20
311.315
 10
569.17
 20
304.175
 10
569.17
 20
289.89
 10
562.03
 20
282.745
 10
540.6
 20
282.745
 10
533.46
 20
289.89
  0
LWPOLYLINE
  5
8C
330
1F
100
AcDbEntity
  8
text2
100
AcDbPolyline
 90
       13
 70
     1
 43
0.0
 10
483.46
 20
282.745
 10
497.745
 20
307.745
 10
483.46
 20
332.745
 10
490.6
 20
332.745
 10
501.315
 20
314.89
 10
512.03
 20
332.745
 10
519.17
 20
332.745
 10
504.885
 20
307.745
 10
519.17
 20
282.745
 10
512.03
 20
282.745
 10
501.315
 20
300.6
 10
490.6
 20
282.745
 10
483.46
 20
282.745
  0
LWPOLYLINE
  5
8D
330
1F
100
AcDbEntity
  8
text2
100
AcDbPolyline
 90
        9
 70
     1
 43
0.0
 10
454.885
 20
293.46
 10
454.885
 20
300.6
 10
451.315
 20
304.175
 10
447.745
 20
304.175
 10
444.17
 20
300.6
 10
444.17
 20
293.46
 10
447.745
 20
289.89
 10
451.315
 20
289.89
 10
454.885
 20
293.46
  0
LWPOLYLINE
  5
8E
330
1F
100
AcDbEntity
  8
text2
100
AcDbPolyline
 90
       18
 70
     1
 43
0.0
 10
458.46
 20
282.745
 10
458.46
 20
279.174
 10
454.885
 20
275.6
 10
437.03
 20
275.6
 10
437.03
 20
268.46
 10
458.46
 20
268.46
 10
465.6
 20
275.6
 10
465.6
 20
311.315
 10
458.46
 20
311.315
 10
458.46
 20
307.745
 10
454.885
 20
311.315
 10
444.17
 20
311.315
 10
437.03
 20
304.175
 10
437.03
 20
289.89
 10
444.17
 20
282.745
 10
454.885
 20
282.745
 10
458.46
 20
286.316
 10
458.46
 20
282.745
  0
LWPOLYLINE
  5
8F
330
1F
100
AcDbEntity
  8
text2
100
AcDbPolyline
 90
       11
 70
     1
 43
0.0
 10
169.999
 20
778.862
 10
169.999
 20
803.862
 10
175.355
 20
803.862
 10
184.284
 20
784.219
 10
184.284
 20
803.862
 10
187.855
 20
803.862
 10
187.855
 20
778.862
 10
182.499
 20
778.862
 10
173.57
 20
798.505
 10
173.57
 20
778.862
 10
169.999
 20
778.862
  0
LWPOLYLINE
  5
90
330
1F
100
AcDbEntity
  8
text2
100
AcDbPolyline
 90
       13
 70
     1
 43
0.0
 10
148.57
 20
778.862
 10
148.57
 20
782.4350000000001
 10
152.142
 20
782.4350000000001
 10
152.142
 20
800.29
 10
148.57
 20
800.29
 10
148.57
 20
803.862
 10
159.284
 20
803.862
 10
159.284
 20
800.29
 10
155.712
 20
800.29
 10
155.712
 20
782.4350000000001
 10
159.284
 20
782.4350000000001
 10
159.284
 20
778.862
 10
148.57
 20
778.862
  0
LWPOLYLINE
  5
91
330
1F
100
AcDbEntity
  8
text2
100
AcDbPolyline
 90
       11
 70
     1
 43
0.0
 10
94.999
 20
778.862
 10
94.999
 20
803.862
 10
111.069
 20
803.862
 10
111.069
 20
800.29
 10
98.57000000000001
 20
800.29
 10
98.57000000000001
 20
793.147
 10
105.712
 20
793.147
 10
105.712
 20
789.577
 10
98.57000000000001
 20
789.577
 10
98.57000000000001
 20
778.862
 10
94.999
 20
778.862
  0
LWPOLYLINE
  5
92
330
1F
100
AcDbEntity
  8
text2
100
AcDbPolyline
 90
        7
 70
     1
 43
0.0
 10
73.57000000000001
 20
793.147
 10
82.499
 20
793.147
 10
84.284
 20
794.934
 10
84.284
 20
798.505
 10
82.499
 20
800.29
 10
73.57000000000001
 20
800.29
 10
73.57000000000001
 20
793.147
  0
LWPOLYLINE
  5
93
330
1F
100
AcDbEntity
  8
text2
100
AcDbPolyline
 90
       13
 70
     1
 43
0.0
 10
70.0
 20
778.862
 10
70.0
 20
803.862
 10
84.284
 20
803.862
 10
87.855
 20
800.29
 10
87.855
 20
793.147
 10
84.284
 20
789.577
 10
78.927
 20
789.577
 10
87.855
 20
780.648
 10
87.855
 20
778.862
 10
84.284
 20
778.862
 10
73.57000000000001
 20
789.577
 10
73.57000000000001
 20
778.862
 10
70.0
 20
778.862
  0
LWPOLYLINE
  5
94
330
1F
100
AcDbEntity
  8
text2
100
AcDbPolyline
 90
       26
 70
     1
 43
0.0
 10
120.0
 20
831.4350000000001
 10
127.14
 20
835.005
 10
130.71
 20
831.4350000000001
 10
145.0
 20
831.4350000000001
 10
148.57
 20
835.005
 10
148.57
 20
838.575
 10
141.425
 20
845.72
 10
134.285
 20
845.72
 10
134.285
 20
852.86
 10
141.425
 20
852.86
 10
148.57
 20
860.005
 10
148.57
 20
863.575
 10
145.0
 20
867.145
 10
130.71
 20
867.145
 10
127.14
 20
863.575
 10
120.0
 20
867.145
 10
127.14
 20
874.29
 10
148.57
 20
874.29
 10
155.71
 20
867.145
 10
155.71
 20
856.4350000000001
 10
148.57
 20
849.29
 10
155.71
 20
842.145
 10
155.71
 20
831.4350000000001
 10
148.57
 20
824.29
 10
127.14
 20
824.29
 10
120.0
 20
831.4350000000001
  0
LWPOLYLINE
  5
95
330
1F
100
AcDbEntity
  8
text2
100
AcDbPolyline
 90
        7
 70
     1
 43
0.0
 10
77.14
 20
852.86
 10
95.0
 20
852.86
 10
98.57000000000001
 20
856.4350000000001
 10
98.57000000000001
 20
863.575
 10
95.0
 20
867.145
 10
77.14
 20
867.145
 10
77.14
 20
852.86
  0
LWPOLYLINE
  5
96
330
1F
100
AcDbEntity
  8
text2
100
AcDbPolyline
 90
        9
 70
     1
 43
0.0
 10
70.0
 20
824.29
 10
70.0
 20
874.29
 10
98.57000000000001
 20
874.29
 10
105.71
 20
867.145
 10
105.71
 20
852.86
 10
98.57000000000001
 20
845.72
 10
77.14
 20
845.72
 10
77.14
 20
824.29
 10
70.0
 20
824.29
  0
LWPOLYLINE
  5
97
330
1F
100
AcDbEntity
  8
text2
100
AcDbPolyline
 90
       16
 70
     1
 43
0.0
 10
2887.145
 20
857.8580000000001
 10
2887.145
 20
868.573
 10
2915.715
 20
890.003
 10
2915.715
 20
897.143
 10
2912.145
 20
900.713
 10
2897.855
 20
900.713
 10
2894.285
 20
897.143
 10
2887.145
 20
900.713
 10
2894.285
 20
907.8580000000001
 10
2915.715
 20
907.8580000000001
 10
2922.855
 20
900.713
 10
2922.855
 20
886.428
 10
2894.285
 20
865.003
 10
2922.855
 20
865.003
 10
2922.855
 20
857.8580000000001
 10
2887.145
 20
857.8580000000001
  0
LWPOLYLINE
  5
98
330
1F
100
AcDbEntity
  8
text2
100
AcDbPolyline
 90
        7
 70
     1
 43
0.0
 10
2844.285
 20
886.428
 10
2862.145
 20
886.428
 10
2865.715
 20
890.003
 10
2865.715
 20
897.143
 10
2862.145
 20
900.713
 10
2844.285
 20
900.713
 10
2844.285
 20
886.428
  0
LWPOLYLINE
  5
99
330
1F
100
AcDbEntity
  8
text2
100
AcDbPolyline
 90
        9
 70
     1
 43
0.0
 10
2837.145
 20
857.8580000000001
 10
2837.145
 20
907.8580000000001
 10
2865.715
 20
907.8580000000001
 10
2872.855
 20
900.713
 10
2872.855
 20
886.428
 10
2865.715
 20
879.288
 10
2844.285
 20
879.288
 10
2844.285
 20
857.8580000000001
 10
2837.145
 20
857.8580000000001
  0
LWPOLYLINE
  5
9A
330
1F
100
AcDbEntity
  8
text2
100
AcDbPolyline
 90
        9
 70
     1
 43
0.0
 10
2914.997
 20
809.715
 10
2914.997
 20
831.143
 10
2907.855
 20
831.143
 10
2907.855
 20
834.715
 10
2925.71
 20
834.715
 10
2925.71
 20
831.143
 10
2918.567
 20
831.143
 10
2918.567
 20
809.715
 10
2914.997
 20
809.715
  0
LWPOLYLINE
  5
9B
330
1F
100
AcDbEntity
  8
text2
100
AcDbPolyline
 90
       13
 70
     1
 43
0.0
 10
2882.854
 20
813.288
 10
2882.854
 20
834.715
 10
2886.425
 20
834.715
 10
2886.425
 20
815.072
 10
2888.21
 20
813.288
 10
2895.354
 20
813.288
 10
2897.139
 20
815.072
 10
2897.139
 20
834.715
 10
2900.71
 20
834.715
 10
2900.71
 20
813.288
 10
2897.139
 20
809.715
 10
2886.425
 20
809.715
 10
2882.854
 20
813.288
  0
LWPOLYLINE
  5
9C
330
1F
100
AcDbEntity
  8
text2
100
AcDbPolyline
 90
        9
 70
     1
 43
0.0
 10
2863.21
 20
813.288
 10
2870.354
 20
813.288
 10
2872.139
 20
815.072
 10
2872.139
 20
829.3580000000001
 10
2870.354
 20
831.143
 10
2863.21
 20
831.143
 10
2861.425
 20
829.3580000000001
 10
2861.425
 20
815.072
 10
2863.21
 20
813.288
  0
LWPOLYLINE
  5
9D
330
1F
100
AcDbEntity
  8
text2
100
AcDbPolyline
 90
        9
 70
     1
 43
0.0
 10
2857.854
 20
813.288
 10
2857.854
 20
831.143
 10
2861.425
 20
834.715
 10
2872.139
 20
834.715
 10
2875.709
 20
831.143
 10
2875.709
 20
813.288
 10
2872.139
 20
809.715
 10
2861.425
 20
809.715
 10
2857.854
 20
813.288
  0
LWPOLYLINE
  5
9E
330
1F
100
AcDbEntity
  8
text2
100
AcDbPolyline
 90
       11
 70
     1
 43
0.0
 10
2807.854
 20
809.715
 10
2807.854
 20
834.715
 10
2823.924
 20
834.715
 10
2823.924
 20
831.143
 10
2811.425
 20
831.143
 10
2811.425
 20
824.0
 10
2818.567
 20
824.0
 10
2818.567
 20
820.4300000000001
 10
2811.425
 20
820.4300000000001
 10
2811.425
 20
809.715
 10
2807.854
 20
809.715
  0
LWPOLYLINE
  5
9F
330
1F
100
AcDbEntity
  8
text2
100
AcDbPolyline
 90
        7
 70
     1
 43
0.0
 10
2786.425
 20
824.0
 10
2795.354
 20
824.0
 10
2797.139
 20
825.787
 10
2797.139
 20
829.3580000000001
 10
2795.354
 20
831.143
 10
2786.425
 20
831.143
 10
2786.425
 20
824.0
  0
LWPOLYLINE
  5
A0
330
1F
100
AcDbEntity
  8
text2
100
AcDbPolyline
 90
       13
 70
     1
 43
0.0
 10
2782.855
 20
809.715
 10
2782.855
 20
834.715
 10
2797.139
 20
834.715
 10
2800.71
 20
831.143
 10
2800.71
 20
824.0
 10
2797.139
 20
820.4300000000001
 10
2791.782
 20
820.4300000000001
 10
2800.71
 20
811.501
 10
2800.71
 20
809.715
 10
2797.139
 20
809.715
 10
2786.425
 20
820.4300000000001
 10
2786.425
 20
809.715
 10
2782.855
 20
809.715
  0
LWPOLYLINE
  5
A1
330
1F
100
AcDbEntity
  8
text2
100
AcDbPolyline
 90
       11
 70
     1
 43
0.0
 10
2859.286
 20
732.143
 10
2859.286
 20
735.716
 10
2862.858
 20
735.716
 10
2862.858
 20
753.571
 10
2859.286
 20
753.571
 10
2862.858
 20
757.143
 10
2866.428
 20
757.143
 10
2866.428
 20
735.716
 10
2870.0
 20
735.716
 10
2870.0
 20
732.143
 10
2859.286
 20
732.143
  0
LWPOLYLINE
  5
A2
330
1F
100
AcDbEntity
  8
text2
100
AcDbPolyline
 90
       11
 70
     1
 43
0.0
 10
167.143
 20
690.0
 10
167.143
 20
693.573
 10
170.715
 20
693.573
 10
170.715
 20
711.428
 10
167.143
 20
711.428
 10
170.715
 20
715.0
 10
174.285
 20
715.0
 10
174.285
 20
693.573
 10
177.857
 20
693.573
 10
177.857
 20
690.0
 10
167.143
 20
690.0
  0
LWPOLYLINE
  5
A3
330
1F
100
AcDbEntity
  8
text2
100
AcDbPolyline
 90
        6
 70
     1
 43
0.0
 10
161.4
 20
577.7
 10
191.4
 20
565.2
 10
191.4
 20
530.2
 10
161.4
 20
517.7
 10
65.0
 20
517.7
 10
65.0
 20
577.7
  0
LWPOLYLINE
  5
A4
330
1F
100
AcDbEntity
  8
text2
100
AcDbPolyline
 90
        6
 70
     1
 43
0.0
 10
1205.0
 20
935.0
 10
1205.0
 20
969.6
 10
1244.3
 20
969.6
 10
1244.3
 20
1135.0
 10
1341.3
 20
1135.0
 10
1341.3
 20
935.0
  0
LWPOLYLINE
  5
A5
330
1F
100
AcDbEntity
  8
text2
100
AcDbPolyline
 90
       10
 70
     1
 43
0.0
 10
1629.6
 20
935.0
 10
1629.6
 20
915.0
 10
1609.6
 20
915.0
 10
1609.6
 20
935.0
 10
1564.3
 20
935.0
 10
1564.3
 20
915.0
 10
1544.3
 20
915.0
 10
1544.3
 20
1135.0
 10
1641.3
 20
1135.0
 10
1641.3
 20
935.0
  0
LWPOLYLINE
  5
A6
330
1F
100
AcDbEntity
  8
text2
100
AcDbPolyline
 90
        6
 70
     1
 43
0.0
 10
1433.4
 20
935.0
 10
1433.4
 20
915.0
 10
1394.3
 20
915.0
 10
1394.3
 20
1135.0
 10
1491.3
 20
1135.0
 10
1491.3
 20
935.0
  0
LWPOLYLINE
  5
A7
330
1F
100
AcDbEntity
  8
text2
100
AcDbPolyline
 90
        6
 70
     1
 43
0.0
 10
2835.0
 20
606.0
 10
2835.0
 20
616.0
 10
2865.0
 20
641.0
 10
2935.0
 20
641.0
 10
2935.0
 20
581.0
 10
2865.0
 20
581.0
  0
LWPOLYLINE
  5
A8
330
1F
100
AcDbEntity
  8
text2
100
AcDbPolyline
 90
        6
 70
     1
 43
0.0
 10
1694.3
 20
889.0
 10
1694.3
 20
1135.0
 10
1941.3
 20
1135.0
 10
1941.3
 20
935.0
 10
1846.3
 20
935.0
 10
1846.3
 20
889.0
  0
LWPOLYLINE
  5
A9
330
1F
100
AcDbEntity
  8
text2
100
AcDbPolyline
 90
        8
 70
     1
 43
0.0
 10
2212.9
 20
935.0
 10
2212.9
 20
920.0
 10
2192.9
 20
920.0
 10
2192.9
 20
935.0
 10
2144.3
 20
935.0
 10
2144.3
 20
1135.0
 10
2241.3
 20
1135.0
 10
2241.3
 20
935.0
  0
LWPOLYLINE
  5
AA
330
1F
100
AcDbEntity
  8
text2
100
AcDbPolyline
 90
        8
 70
     1
 43
0.0
 10
2087.1
 20
935.0
 10
2087.1
 20
920.0
 10
2075.3
 20
920.0
 10
2075.3
 20
935.0
 10
1994.3
 20
935.0
 10
1994.3
 20
1135.0
 10
2091.3
 20
1135.0
 10
2091.3
 20
935.0
  0
LWPOLYLINE
  5
AB
330
1F
100
AcDbEntity
  8
text2
100
AcDbPolyline
 90
        4
 70
     1
 43
0.0
 10
0.0
 20
0.0
 10
0.0
 20
1200.0
 10
3000.0
 20
1200.0
 10
3000.0
 20
0.0
  0
LWPOLYLINE
  5
AC
330
1F
100
AcDbEntity
  8
text2
100
AcDbPolyline
 90
       11
 70
     1
 43
0.0
 10
167.143
 20
690.0
 10
167.143
 20
693.573
 10
170.715
 20
693.573
 10
170.715
 20
711.428
 10
167.143
 20
711.428
 10
170.715
 20
715.0
 10
174.285
 20
715.0
 10
174.285
 20
693.573
 10
177.857
 20
693.573
 10
177.857
 20
690.0
 10
167.143
 20
690.0
  0
LWPOLYLINE
  5
AD
330
1F
100
AcDbEntity
  8
text2
100
AcDbPolyline
 90
       11
 70
     1
 43
0.0
 10
2859.286
 20
732.143
 10
2859.286
 20
735.716
 10
2862.858
 20
735.716
 10
2862.858
 20
753.571
 10
2859.286
 20
753.571
 10
2862.858
 20
757.143
 10
2866.428
 20
757.143
 10
2866.428
 20
735.716
 10
2870.0
 20
735.716
 10
2870.0
 20
732.143
 10
2859.286
 20
732.143
  0
LWPOLYLINE
  5
AE
330
1F
100
AcDbEntity
  8
text2
100
AcDbPolyline
 90
       11
 70
     1
 43
0.0
 10
1196.428
 20
1096.427
 10
1196.428
 20
1100.0
 10
1200.0
 20
1100.0
 10
1200.0
 20
1117.855
 10
1196.428
 20
1117.855
 10
1200.0
 20
1121.427
 10
1203.57
 20
1121.427
 10
1203.57
 20
1100.0
 10
1207.142
 20
1100.0
 10
1207.142
 20
1096.427
 10
1196.428
 20
1096.427
  0
LWPOLYLINE
  5
AF
330
1F
100
AcDbEntity
  8
text2
100
AcDbPolyline
 90
       11
 70
     1
 43
0.0
 10
169.999
 20
778.862
 10
169.999
 20
803.862
 10
175.355
 20
803.862
 10
184.284
 20
784.219
 10
184.284
 20
803.862
 10
187.855
 20
803.862
 10
187.855
 20
778.862
 10
182.499
 20
778.862
 10
173.57
 20
798.505
 10
173.57
 20
778.862
 10
169.999
 20
778.862
  0
LWPOLYLINE
  5
B0
330
1F
100
AcDbEntity
  8
text2
100
AcDbPolyline
 90
       13
 70
     1
 43
0.0
 10
148.57
 20
778.862
 10
148.57
 20
782.4350000000001
 10
152.142
 20
782.4350000000001
 10
152.142
 20
800.29
 10
148.57
 20
800.29
 10
148.57
 20
803.862
 10
159.284
 20
803.862
 10
159.284
 20
800.29
 10
155.712
 20
800.29
 10
155.712
 20
782.4350000000001
 10
159.284
 20
782.4350000000001
 10
159.284
 20
778.862
 10
148.57
 20
778.862
  0
LWPOLYLINE
  5
B1
330
1F
100
AcDbEntity
  8
text2
100
AcDbPolyline
 90
       11
 70
     1
 43
0.0
 10
94.999
 20
778.862
 10
94.999
 20
803.862
 10
111.069
 20
803.862
 10
111.069
 20
800.29
 10
98.57000000000001
 20
800.29
 10
98.57000000000001
 20
793.147
 10
105.712
 20
793.147
 10
105.712
 20
789.577
 10
98.57000000000001
 20
789.577
 10
98.57000000000001
 20
778.862
 10
94.999
 20
778.862
  0
LWPOLYLINE
  5
B2
330
1F
100
AcDbEntity
  8
text2
100
AcDbPolyline
 90
        7
 70
     1
 43
0.0
 10
73.57000000000001
 20
793.147
 10
82.499
 20
793.147
 10
84.284
 20
794.934
 10
84.284
 20
798.505
 10
82.499
 20
800.29
 10
73.57000000000001
 20
800.29
 10
73.57000000000001
 20
793.147
  0
LWPOLYLINE
  5
B3
330
1F
100
AcDbEntity
  8
text2
100
AcDbPolyline
 90
       13
 70
     1
 43
0.0
 10
70.0
 20
778.862
 10
70.0
 20
803.862
 10
84.284
 20
803.862
 10
87.855
 20
800.29
 10
87.855
 20
793.147
 10
84.284
 20
789.577
 10
78.927
 20
789.577
 10
87.855
 20
780.648
 10
87.855
 20
778.862
 10
84.284
 20
778.862
 10
73.57000000000001
 20
789.577
 10
73.57000000000001
 20
778.862
 10
70.0
 20
778.862
  0
LWPOLYLINE
  5
B4
330
1F
100
AcDbEntity
  8
text2
100
AcDbPolyline
 90
       26
 70
     1
 43
0.0
 10
120.0
 20
831.4350000000001
 10
127.14
 20
835.005
 10
130.71
 20
831.4350000000001
 10
145.0
 20
831.4350000000001
 10
148.57
 20
835.005
 10
148.57
 20
838.575
 10
141.425
 20
845.72
 10
134.285
 20
845.72
 10
134.285
 20
852.86
 10
141.425
 20
852.86
 10
148.57
 20
860.005
 10
148.57
 20
863.575
 10
145.0
 20
867.145
 10
130.71
 20
867.145
 10
127.14
 20
863.575
 10
120.0
 20
867.145
 10
127.14
 20
874.29
 10
148.57
 20
874.29
 10
155.71
 20
867.145
 10
155.71
 20
856.4350000000001
 10
148.57
 20
849.29
 10
155.71
 20
842.145
 10
155.71
 20
831.4350000000001
 10
148.57
 20
824.29
 10
127.14
 20
824.29
 10
120.0
 20
831.4350000000001
  0
LWPOLYLINE
  5
B5
330
1F
100
AcDbEntity
  8
text2
100
AcDbPolyline
 90
        7
 70
     1
 43
0.0
 10
77.14
 20
852.86
 10
95.0
 20
852.86
 10
98.57000000000001
 20
856.4350000000001
 10
98.57000000000001
 20
863.575
 10
95.0
 20
867.145
 10
77.14
 20
867.145
 10
77.14
 20
852.86
  0
LWPOLYLINE
  5
B6
330
1F
100
AcDbEntity
  8
text2
100
AcDbPolyline
 90
        9
 70
     1
 43
0.0
 10
70.0
 20
824.29
 10
70.0
 20
874.29
 10
98.57000000000001
 20
874.29
 10
105.71
 20
867.145
 10
105.71
 20
852.86
 10
98.57000000000001
 20
845.72
 10
77.14
 20
845.72
 10
77.14
 20
824.29
 10
70.0
 20
824.29
  0
LWPOLYLINE
  5
B7
330
1F
100
AcDbEntity
  8
text2
100
AcDbPolyline
 90
       16
 70
     1
 43
0.0
 10
2887.145
 20
857.8580000000001
 10
2887.145
 20
868.573
 10
2915.715
 20
890.003
 10
2915.715
 20
897.143
 10
2912.145
 20
900.713
 10
2897.855
 20
900.713
 10
2894.285
 20
897.143
 10
2887.145
 20
900.713
 10
2894.285
 20
907.8580000000001
 10
2915.715
 20
907.8580000000001
 10
2922.855
 20
900.713
 10
2922.855
 20
886.428
 10
2894.285
 20
865.003
 10
2922.855
 20
865.003
 10
2922.855
 20
857.8580000000001
 10
2887.145
 20
857.8580000000001
  0
LWPOLYLINE
  5
B8
330
1F
100
AcDbEntity
  8
text2
100
AcDbPolyline
 90
        7
 70
     1
 43
0.0
 10
2844.285
 20
886.428
 10
2862.145
 20
886.428
 10
2865.715
 20
890.003
 10
2865.715
 20
897.143
 10
2862.145
 20
900.713
 10
2844.285
 20
900.713
 10
2844.285
 20
886.428
  0
LWPOLYLINE
  5
B9
330
1F
100
AcDbEntity
  8
text2
100
AcDbPolyline
 90
        9
 70
     1
 43
0.0
 10
2837.145
 20
857.8580000000001
 10
2837.145
 20
907.8580000000001
 10
2865.715
 20
907.8580000000001
 10
2872.855
 20
900.713
 10
2872.855
 20
886.428
 10
2865.715
 20
879.288
 10
2844.285
 20
879.288
 10
2844.285
 20
857.8580000000001
 10
2837.145
 20
857.8580000000001
  0
LWPOLYLINE
  5
BA
330
1F
100
AcDbEntity
  8
text2
100
AcDbPolyline
 90
        9
 70
     1
 43
0.0
 10
2914.997
 20
809.715
 10
2914.997
 20
831.143
 10
2907.855
 20
831.143
 10
2907.855
 20
834.715
 10
2925.71
 20
834.715
 10
2925.71
 20
831.143
 10
2918.567
 20
831.143
 10
2918.567
 20
809.715
 10
2914.997
 20
809.715
  0
LWPOLYLINE
  5
BB
330
1F
100
AcDbEntity
  8
text2
100
AcDbPolyline
 90
       13
 70
     1
 43
0.0
 10
2882.854
 20
813.288
 10
2882.854
 20
834.715
 10
2886.425
 20
834.715
 10
2886.425
 20
815.072
 10
2888.21
 20
813.288
 10
2895.354
 20
813.288
 10
2897.139
 20
815.072
 10
2897.139
 20
834.715
 10
2900.71
 20
834.715
 10
2900.71
 20
813.288
 10
2897.139
 20
809.715
 10
2886.425
 20
809.715
 10
2882.854
 20
813.288
  0
LWPOLYLINE
  5
BC
330
1F
100
AcDbEntity
  8
text2
100
AcDbPolyline
 90
        9
 70
     1
 43
0.0
 10
2863.21
 20
813.288
 10
2870.354
 20
813.288
 10
2872.139
 20
815.072
 10
2872.139
 20
829.3580000000001
 10
2870.354
 20
831.143
 10
2863.21
 20
831.143
 10
2861.425
 20
829.3580000000001
 10
2861.425
 20
815.072
 10
2863.21
 20
813.288
  0
LWPOLYLINE
  5
BD
330
1F
100
AcDbEntity
  8
text2
100
AcDbPolyline
 90
        9
 70
     1
 43
0.0
 10
2857.854
 20
813.288
 10
2857.854
 20
831.143
 10
2861.425
 20
834.715
 10
2872.139
 20
834.715
 10
2875.709
 20
831.143
 10
2875.709
 20
813.288
 10
2872.139
 20
809.715
 10
2861.425
 20
809.715
 10
2857.854
 20
813.288
  0
LWPOLYLINE
  5
BE
330
1F
100
AcDbEntity
  8
text2
100
AcDbPolyline
 90
       11
 70
     1
 43
0.0
 10
2807.854
 20
809.715
 10
2807.854
 20
834.715
 10
2823.924
 20
834.715
 10
2823.924
 20
831.143
 10
2811.425
 20
831.143
 10
2811.425
 20
824.0
 10
2818.567
 20
824.0
 10
2818.567
 20
820.4300000000001
 10
2811.425
 20
820.4300000000001
 10
2811.425
 20
809.715
 10
2807.854
 20
809.715
  0
LWPOLYLINE
  5
BF
330
1F
100
AcDbEntity
  8
text2
100
AcDbPolyline
 90
        7
 70
     1
 43
0.0
 10
2786.425
 20
824.0
 10
2795.354
 20
824.0
 10
2797.139
 20
825.787
 10
2797.139
 20
829.3580000000001
 10
2795.354
 20
831.143
 10
2786.425
 20
831.143
 10
2786.425
 20
824.0
  0
LWPOLYLINE
  5
C0
330
1F
100
AcDbEntity
  8
text2
100
AcDbPolyline
 90
       13
 70
     1
 43
0.0
 10
2782.855
 20
809.715
 10
2782.855
 20
834.715
 10
2797.139
 20
834.715
 10
2800.71
 20
831.143
 10
2800.71
 20
824.0
 10
2797.139
 20
820.4300000000001
 10
2791.782
 20
820.4300000000001
 10
2800.71
 20
811.501
 10
2800.71
 20
809.715
 10
2797.139
 20
809.715
 10
2786.425
 20
820.4300000000001
 10
2786.425
 20
809.715
 10
2782.855
 20
809.715
  0
LWPOLYLINE
  5
C1
330
1F
100
AcDbEntity
  8
text2
100
AcDbPolyline
 90
        4
 70
     1
 43
0.0
 10
198.9
 20
264.4
 10
198.9
 20
388.9
 10
396.4
 20
388.9
 10
396.4
 20
264.4
  0
LWPOLYLINE
  5
C2
330
1F
100
AcDbEntity
  8
text2
100
AcDbPolyline
 90
       74
 70
     1
 43
0.0
 10
383.2
 20
334.4
 10
383.6
 20
331.2
 10
383.6
 20
325.6
 10
381.6
 20
319.2
 10
378.4
 20
313.2
 10
374.0
 20
307.6
 10
368.4
 20
302.4
 10
361.6
 20
297.2
 10
353.6
 20
293.2
 10
344.8
 20
289.2
 10
335.2
 20
286.0
 10
324.8
 20
283.6
 10
314.0
 20
282.0
 10
302.4
 20
280.8
 10
292.4
 20
280.8
 10
286.0
 20
281.2
 10
279.6
 20
281.6
 10
273.2
 20
282.0
 10
267.2
 20
283.2
 10
261.2
 20
284.4
 10
255.2
 20
285.6
 10
249.6
 20
287.2
 10
244.4
 20
288.8
 10
239.2
 20
290.8
 10
234.4
 20
292.8
 10
229.6
 20
295.2
 10
225.6
 20
297.2
 10
229.6
 20
295.6
 10
233.2
 20
294.0
 10
237.2
 20
292.4
 10
241.6
 20
290.8
 10
245.6
 20
289.6
 10
250.0
 20
288.8
 10
254.8
 20
287.6
 10
259.2
 20
286.8
 10
264.0
 20
286.4
 10
269.2
 20
286.0
 10
274.4
 20
285.6
 10
289.6
 20
285.6
 10
301.2
 20
286.8
 10
312.0
 20
288.4
 10
322.4
 20
290.8
 10
332.0
 20
294.0
 10
340.8
 20
298.0
 10
348.8
 20
302.0
 10
355.6
 20
306.8
 10
361.2
 20
312.4
 10
365.6
 20
318.0
 10
368.8
 20
324.0
 10
370.8
 20
330.4
 10
371.2
 20
335.6
 10
370.8
 20
338.8
 10
370.4
 20
341.6
 10
370.0
 20
344.4
 10
369.2
 20
347.2
 10
368.0
 20
350.0
 10
366.4
 20
352.8
 10
364.8
 20
355.2
 10
362.8
 20
357.6
 10
360.8
 20
360.0
 10
358.0
 20
362.4
 10
355.2
 20
364.4
 10
352.0
 20
366.8
 10
356.0
 20
364.4
 10
360.4
 20
362.0
 10
364.0
 20
359.6
 10
367.6
 20
356.8
 10
371.2
 20
354.0
 10
374.0
 20
350.8
 10
376.8
 20
347.6
 10
379.2
 20
344.8
 10
380.8
 20
341.2
 10
382.4
 20
338.0
 10
383.2
 20
334.4
  0
LWPOLYLINE
  5
C3
330
1F
100
AcDbEntity
  8
text2
100
AcDbPolyline
 90
      142
 70
     1
 43
0.0
 10
348.8
 20
359.2
 10
346.8
 20
359.6
 10
335.6
 20
359.6
 10
330.8
 20
358.8
 10
328.0
 20
358.0
 10
325.6
 20
357.6
 10
323.2
 20
356.8
 10
320.8
 20
355.6
 10
318.4
 20
354.8
 10
316.4
 20
353.6
 10
313.6
 20
352.0
 10
311.2
 20
350.4
 10
309.6
 20
350.8
 10
304.4
 20
352.4
 10
298.4
 20
353.6
 10
292.8
 20
354.0
 10
293.2
 20
356.0
 10
297.2
 20
364.8
 10
299.6
 20
368.0
 10
303.2
 20
371.6
 10
304.8
 20
372.8
 10
306.0
 20
373.6
 10
307.6
 20
374.8
 10
309.2
 20
375.6
 10
313.2
 20
377.2
 10
315.2
 20
377.6
 10
317.2
 20
378.4
 10
319.2
 20
378.4
 10
321.6
 20
378.8
 10
324.0
 20
378.8
 10
321.2
 20
379.2
 10
313.6
 20
379.2
 10
311.2
 20
378.8
 10
304.0
 20
376.4
 10
299.2
 20
374.0
 10
296.8
 20
372.4
 10
294.8
 20
370.8
 10
291.2
 20
367.6
 10
288.0
 20
363.2
 10
285.6
 20
359.6
 10
284.8
 20
360.4
 10
284.0
 20
362.0
 10
281.8
 20
364.2
 10
281.8
 20
320.6
 10
282.0
 20
320.4
 10
282.8
 20
319.2
 10
283.2
 20
318.8
 10
283.6
 20
317.6
 10
286.0
 20
312.8
 10
288.8
 20
309.2
 10
290.4
 20
306.8
 10
294.4
 20
302.8
 10
295.2
 20
302.4
 10
286.8
 20
302.4
 10
283.6
 20
302.8
 10
281.8
 20
303.0
 10
281.8
 20
299.2
 10
284.4
 20
299.2
 10
296.4
 20
300.4
 10
297.2
 20
300.8
 10
298.8
 20
299.6
 10
300.8
 20
298.0
 10
303.2
 20
297.2
 10
305.6
 20
296.0
 10
310.4
 20
294.4
 10
313.2
 20
294.0
 10
315.6
 20
294.0
 10
311.6
 20
294.8
 10
307.6
 20
296.4
 10
306.0
 20
297.2
 10
304.4
 20
298.4
 10
302.0
 20
300.8
 10
301.6
 20
301.6
 10
303.6
 20
302.0
 10
306.8
 20
303.2
 10
310.0
 20
304.0
 10
312.8
 20
305.2
 10
310.4
 20
304.4
 10
307.6
 20
303.6
 10
302.0
 20
302.8
 10
301.2
 20
302.8
 10
300.8
 20
303.2
 10
299.6
 20
306.4
 10
299.2
 20
309.6
 10
298.8
 20
313.2
 10
299.2
 20
317.2
 10
300.0
 20
321.2
 10
301.2
 20
325.2
 10
302.8
 20
329.2
 10
304.8
 20
333.2
 10
307.2
 20
337.2
 10
309.6
 20
340.8
 10
311.6
 20
343.2
 10
312.4
 20
342.4
 10
316.4
 20
340.0
 10
319.6
 20
337.2
 10
322.4
 20
334.0
 10
324.4
 20
330.8
 10
325.6
 20
327.2
 10
326.0
 20
324.4
 10
326.0
 20
322.8
 10
325.6
 20
320.8
 10
325.6
 20
319.2
 10
325.2
 20
318.0
 10
323.6
 20
314.8
 10
322.8
 20
313.6
 10
322.0
 20
312.0
 10
320.8
 20
310.8
 10
319.2
 20
309.6
 10
317.6
 20
308.0
 10
316.0
 20
306.8
 10
318.4
 20
308.4
 10
320.4
 20
309.6
 10
322.4
 20
311.6
 10
324.4
 20
313.2
 10
326.0
 20
314.8
 10
329.2
 20
318.8
 10
330.4
 20
320.4
 10
332.0
 20
324.4
 10
332.4
 20
326.4
 10
332.4
 20
328.4
 10
332.0
 20
331.6
 10
330.8
 20
335.2
 10
328.8
 20
338.4
 10
326.4
 20
341.6
 10
322.8
 20
344.4
 10
319.2
 20
346.8
 10
316.8
 20
348.0
 10
320.0
 20
350.4
 10
322.4
 20
352.0
 10
324.4
 20
353.2
 10
326.4
 20
354.0
 10
328.4
 20
355.2
 10
330.0
 20
356.0
 10
332.0
 20
356.4
 10
334.0
 20
357.2
 10
336.0
 20
357.6
 10
338.0
 20
358.4
 10
339.6
 20
358.8
 10
341.6
 20
358.8
 10
343.6
 20
359.2
 10
348.8
 20
359.2
  0
LWPOLYLINE
  5
C4
330
1F
100
AcDbEntity
  8
text2
100
AcDbPolyline
 90
       95
 70
     1
 43
0.0
 10
281.8
 20
364.2
 10
279.6
 20
366.4
 10
278.4
 20
367.2
 10
276.8
 20
368.4
 10
274.8
 20
369.2
 10
273.2
 20
370.0
 10
271.6
 20
370.4
 10
267.6
 20
371.2
 10
259.6
 20
371.2
 10
255.6
 20
370.4
 10
253.2
 20
369.6
 10
253.6
 20
369.6
 10
255.2
 20
370.0
 10
257.2
 20
370.0
 10
258.8
 20
370.4
 10
260.4
 20
370.4
 10
262.0
 20
370.0
 10
263.6
 20
370.0
 10
265.2
 20
369.6
 10
266.4
 20
369.2
 10
268.0
 20
368.4
 10
269.2
 20
368.0
 10
270.8
 20
367.2
 10
273.2
 20
365.6
 10
276.8
 20
362.0
 10
278.4
 20
359.6
 10
279.2
 20
358.0
 10
280.0
 20
356.8
 10
280.8
 20
355.2
 10
280.8
 20
354.0
 10
273.6
 20
353.2
 10
270.4
 20
352.4
 10
266.8
 20
351.6
 10
263.6
 20
350.8
 10
260.4
 20
349.6
 10
257.2
 20
348.8
 10
254.4
 20
347.6
 10
251.6
 20
346.0
 10
248.8
 20
344.8
 10
246.4
 20
343.2
 10
248.4
 20
344.0
 10
250.8
 20
345.2
 10
253.2
 20
346.0
 10
255.2
 20
346.8
 10
257.6
 20
347.2
 10
260.4
 20
348.0
 10
262.8
 20
348.4
 10
268.4
 20
349.2
 10
271.2
 20
349.2
 10
274.0
 20
349.6
 10
279.6
 20
350.0
 10
281.6
 20
350.0
 10
281.2
 20
349.2
 10
280.0
 20
344.0
 10
279.6
 20
338.8
 10
279.6
 20
333.2
 10
280.0
 20
330.0
 10
277.6
 20
331.2
 10
275.6
 20
331.6
 10
274.0
 20
332.4
 10
272.0
 20
332.4
 10
270.4
 20
332.8
 10
268.4
 20
332.8
 10
266.4
 20
332.4
 10
264.8
 20
332.4
 10
262.8
 20
331.6
 10
261.2
 20
331.2
 10
259.2
 20
330.4
 10
257.6
 20
329.6
 10
255.6
 20
328.4
 10
254.0
 20
327.6
 10
252.0
 20
326.4
 10
249.2
 20
323.6
 10
250.4
 20
324.4
 10
252.0
 20
325.6
 10
253.6
 20
326.4
 10
254.8
 20
327.2
 10
258.0
 20
328.0
 10
259.2
 20
328.4
 10
260.8
 20
328.8
 10
262.4
 20
328.8
 10
264.0
 20
329.2
 10
265.6
 20
328.8
 10
266.8
 20
328.8
 10
268.4
 20
328.4
 10
270.0
 20
328.4
 10
271.6
 20
328.0
 10
272.8
 20
327.6
 10
275.2
 20
326.0
 10
276.4
 20
325.6
 10
277.6
 20
324.4
 10
280.0
 20
322.8
 10
280.8
 20
321.6
 10
281.8
 20
320.6
 10
281.8
 20
364.2
  0
LWPOLYLINE
  5
C5
330
1F
100
AcDbEntity
  8
text2
100
AcDbPolyline
 90
       51
 70
     1
 43
0.0
 10
281.8
 20
303.0
 10
280.0
 20
303.2
 10
276.8
 20
303.6
 10
270.4
 20
304.8
 10
263.2
 20
306.4
 10
256.4
 20
308.8
 10
250.0
 20
311.6
 10
244.4
 20
314.8
 10
239.2
 20
318.4
 10
234.4
 20
322.0
 10
230.8
 20
326.0
 10
227.6
 20
330.4
 10
225.2
 20
334.4
 10
224.0
 20
339.2
 10
223.6
 20
343.6
 10
224.0
 20
347.2
 10
224.8
 20
351.2
 10
225.6
 20
353.2
 10
226.4
 20
354.8
 10
230.0
 20
359.6
 10
231.6
 20
360.8
 10
233.6
 20
362.0
 10
235.2
 20
363.2
 10
240.0
 20
365.6
 10
236.8
 20
364.4
 10
231.2
 20
362.0
 10
228.4
 20
360.4
 10
226.0
 20
358.4
 10
223.6
 20
356.8
 10
219.6
 20
352.8
 10
218.0
 20
350.8
 10
216.8
 20
348.4
 10
216.0
 20
346.4
 10
215.2
 20
344.0
 10
214.8
 20
340.0
 10
215.2
 20
335.6
 10
216.8
 20
331.2
 10
218.8
 20
326.8
 10
222.0
 20
322.4
 10
225.6
 20
318.4
 10
230.4
 20
314.8
 10
235.6
 20
311.2
 10
241.2
 20
308.0
 10
247.6
 20
305.6
 10
254.4
 20
303.2
 10
261.6
 20
301.2
 10
268.0
 20
300.0
 10
272.4
 20
299.6
 10
276.4
 20
299.2
 10
281.8
 20
299.2
 10
281.8
 20
303.0
  0
LWPOLYLINE
  5
C6
330
1F
100
AcDbEntity
  8
text2
100
AcDbPolyline
 90
       11
 70
     1
 43
0.0
 10
263.74
 20
405.745
 10
263.74
 20
412.89
 10
270.885
 20
412.89
 10
270.885
 20
448.6
 10
263.74
 20
448.6
 10
270.885
 20
455.745
 10
278.025
 20
455.745
 10
278.025
 20
412.89
 10
285.17
 20
412.89
 10
285.17
 20
405.745
 10
263.74
 20
405.745
  0
LWPOLYLINE
  5
C7
330
1F
100
AcDbEntity
  8
text2
100
AcDbPolyline
 90
        7
 70
     1
 43
0.0
 10
213.74
 20
434.315
 10
228.025
 20
434.315
 10
235.17
 20
441.46
 10
235.17
 20
445.03
 10
231.6
 20
448.6
 10
213.74
 20
448.6
 10
213.74
 20
434.315
  0
LWPOLYLINE
  5
C8
330
1F
100
AcDbEntity
  8
text2
100
AcDbPolyline
 90
        7
 70
     1
 43
0.0
 10
213.74
 20
412.89
 10
231.6
 20
412.89
 10
235.17
 20
416.46
 10
235.17
 20
420.03
 10
228.025
 20
427.175
 10
213.74
 20
427.175
 10
213.74
 20
412.89
  0
LWPOLYLINE
  5
C9
330
1F
100
AcDbEntity
  8
text2
100
AcDbPolyline
 90
       10
 70
     1
 43
0.0
 10
206.6
 20
405.745
 10
206.6
 20
455.745
 10
235.17
 20
455.745
 10
242.31
 20
448.6
 10
242.31
 20
437.89
 10
235.17
 20
430.745
 10
242.31
 20
423.6
 10
242.31
 20
412.89
 10
235.17
 20
405.745
 10
206.6
 20
405.745
  0
LWPOLYLINE
  5
CA
330
1F
100
AcDbEntity
  8
text2
100
AcDbPolyline
 90
       19
 70
     1
 43
0.0
 10
783.46
 20
289.89
 10
790.6
 20
293.46
 10
794.1700000000001
 20
289.89
 10
808.46
 20
289.89
 10
812.03
 20
293.46
 10
812.03
 20
304.175
 10
808.46
 20
307.745
 10
783.46
 20
307.745
 10
783.46
 20
332.745
 10
819.1700000000001
 20
332.745
 10
819.1700000000001
 20
325.6
 10
790.6
 20
325.6
 10
790.6
 20
314.89
 10
812.03
 20
314.89
 10
819.1700000000001
 20
307.745
 10
819.1700000000001
 20
289.89
 10
812.03
 20
282.745
 10
790.6
 20
282.745
 10
783.46
 20
289.89
  0
LWPOLYLINE
  5
CB
330
1F
100
AcDbEntity
  8
text2
100
AcDbPolyline
 90
       11
 70
     1
 43
0.0
 10
740.6
 20
282.745
 10
740.6
 20
289.89
 10
747.745
 20
289.89
 10
747.745
 20
325.6
 10
740.6
 20
325.6
 10
747.745
 20
332.745
 10
754.885
 20
332.745
 10
754.885
 20
289.89
 10
762.03
 20
289.89
 10
762.03
 20
282.745
 10
740.6
 20
282.745
  0
LWPOLYLINE
  5
CC
330
1F
100
AcDbEntity
  8
text2
100
AcDbPolyline
 90
        9
 70
     1
 43
0.0
 10
694.17
 20
293.46
 10
694.17
 20
322.03
 10
697.745
 20
325.6
 10
704.885
 20
325.6
 10
708.46
 20
322.03
 10
708.46
 20
293.46
 10
704.885
 20
289.89
 10
697.745
 20
289.89
 10
694.17
 20
293.46
  0
LWPOLYLINE
  5
CD
330
1F
100
AcDbEntity
  8
text2
100
AcDbPolyline
 90
        9
 70
     1
 43
0.0
 10
687.03
 20
289.89
 10
687.03
 20
325.6
 10
694.17
 20
332.745
 10
708.46
 20
332.745
 10
715.6
 20
325.6
 10
715.6
 20
289.89
 10
708.46
 20
282.745
 10
694.17
 20
282.745
 10
687.03
 20
289.89
  0
LWPOLYLINE
  5
CE
330
1F
100
AcDbEntity
  8
text2
100
AcDbPolyline
 90
        9
 70
     1
 43
0.0
 10
644.17
 20
293.46
 10
644.17
 20
322.03
 10
647.745
 20
325.6
 10
654.885
 20
325.6
 10
658.46
 20
322.03
 10
658.46
 20
293.46
 10
654.885
 20
289.89
 10
647.745
 20
289.89
 10
644.17
 20
293.46
  0
LWPOLYLINE
  5
CF
330
1F
100
AcDbEntity
  8
text2
100
AcDbPolyline
 90
        9
 70
     1
 43
0.0
 10
637.03
 20
289.89
 10
637.03
 20
325.6
 10
644.17
 20
332.745
 10
658.46
 20
332.745
 10
665.6
 20
325.6
 10
665.6
 20
289.89
 10
658.46
 20
282.745
 10
644.17
 20
282.745
 10
637.03
 20
289.89
  0
LWPOLYLINE
  5
D0
330
1F
100
AcDbEntity
  8
text2
100
AcDbPolyline
 90
        7
 70
     1
 43
0.0
 10
590.6
 20
311.315
 10
604.885
 20
311.315
 10
612.03
 20
318.46
 10
612.03
 20
322.03
 10
608.46
 20
325.6
 10
590.6
 20
325.6
 10
590.6
 20
311.315
  0
LWPOLYLINE
  5
D1
330
1F
100
AcDbEntity
  8
text2
100
AcDbPolyline
 90
        7
 70
     1
 43
0.0
 10
590.6
 20
289.89
 10
608.46
 20
289.89
 10
612.03
 20
293.46
 10
612.03
 20
297.03
 10
604.885
 20
304.175
 10
590.6
 20
304.175
 10
590.6
 20
289.89
  0
LWPOLYLINE
  5
D2
330
1F
100
AcDbEntity
  8
text2
100
AcDbPolyline
 90
       10
 70
     1
 43
0.0
 10
583.46
 20
282.745
 10
583.46
 20
332.745
 10
612.03
 20
332.745
 10
619.17
 20
325.6
 10
619.17
 20
314.89
 10
612.03
 20
307.745
 10
619.17
 20
300.6
 10
619.17
 20
289.89
 10
612.03
 20
282.745
 10
583.46
 20
282.745
  0
LWPOLYLINE
  5
D3
330
1F
100
AcDbEntity
  8
text2
100
AcDbPolyline
 90
       25
 70
     1
 43
0.0
 10
533.46
 20
289.89
 10
540.6
 20
293.46
 10
544.17
 20
289.89
 10
558.46
 20
289.89
 10
562.03
 20
293.46
 10
562.03
 20
300.6
 10
558.46
 20
304.175
 10
540.6
 20
304.175
 10
533.46
 20
311.315
 10
533.46
 20
325.6
 10
540.6
 20
332.745
 10
562.03
 20
332.745
 10
569.17
 20
325.6
 10
562.03
 20
322.03
 10
558.46
 20
325.6
 10
544.17
 20
325.6
 10
540.6
 20
322.03
 10
540.6
 20
314.89
 10
544.17
 20
311.315
 10
562.03
 20
311.315
 10
569.17
 20
304.175
 10
569.17
 20
289.89
 10
562.03
 20
282.745
 10
540.6
 20
282.745
 10
533.46
 20
289.89
  0
LWPOLYLINE
  5
D4
330
1F
100
AcDbEntity
  8
text2
100
AcDbPolyline
 90
       13
 70
     1
 43
0.0
 10
483.46
 20
282.745
 10
497.745
 20
307.745
 10
483.46
 20
332.745
 10
490.6
 20
332.745
 10
501.315
 20
314.89
 10
512.03
 20
332.745
 10
519.17
 20
332.745
 10
504.885
 20
307.745
 10
519.17
 20
282.745
 10
512.03
 20
282.745
 10
501.315
 20
300.6
 10
490.6
 20
282.745
 10
483.46
 20
282.745
  0
LWPOLYLINE
  5
D5
330
1F
100
AcDbEntity
  8
text2
100
AcDbPolyline
 90
        9
 70
     1
 43
0.0
 10
454.885
 20
293.46
 10
454.885
 20
300.6
 10
451.315
 20
304.175
 10
447.745
 20
304.175
 10
444.17
 20
300.6
 10
444.17
 20
293.46
 10
447.745
 20
289.89
 10
451.315
 20
289.89
 10
454.885
 20
293.46
  0
LWPOLYLINE
  5
D6
330
1F
100
AcDbEntity
  8
text2
100
AcDbPolyline
 90
       18
 70
     1
 43
0.0
 10
458.46
 20
282.745
 10
458.46
 20
279.174
 10
454.885
 20
275.6
 10
437.03
 20
275.6
 10
437.03
 20
268.46
 10
458.46
 20
268.46
 10
465.6
 20
275.6
 10
465.6
 20
311.315
 10
458.46
 20
311.315
 10
458.46
 20
307.745
 10
454.885
 20
311.315
 10
444.17
 20
311.315
 10
437.03
 20
304.175
 10
437.03
 20
289.89
 10
444.17
 20
282.745
 10
454.885
 20
282.745
 10
458.46
 20
286.316
 10
458.46
 20
282.745
  0
LWPOLYLINE
  5
D7
330
1F
100
AcDbEntity
  8
text2
100
AcDbPolyline
 90
       11
 70
     1
 43
0.0
 10
2392.14
 20
1007.145
 10
2392.14
 20
1014.29
 10
2399.285
 20
1014.29
 10
2399.285
 20
1050.0
 10
2392.14
 20
1050.0
 10
2399.285
 20
1057.145
 10
2406.425
 20
1057.145
 10
2406.425
 20
1014.29
 10
2413.57
 20
1014.29
 10
2413.57
 20
1007.145
 10
2392.14
 20
1007.145
  0
LWPOLYLINE
  5
D8
330
1F
100
AcDbEntity
  8
text2
100
AcDbPolyline
 90
        7
 70
     1
 43
0.0
 10
2342.14
 20
1035.715
 10
2360.0
 20
1035.715
 10
2363.57
 20
1039.29
 10
2363.57
 20
1046.43
 10
2360.0
 20
1050.0
 10
2342.14
 20
1050.0
 10
2342.14
 20
1035.715
  0
LWPOLYLINE
  5
D9
330
1F
100
AcDbEntity
  8
text2
100
AcDbPolyline
 90
        9
 70
     1
 43
0.0
 10
2335.0
 20
1007.145
 10
2335.0
 20
1057.145
 10
2363.57
 20
1057.145
 10
2370.71
 20
1050.0
 10
2370.71
 20
1035.715
 10
2363.57
 20
1028.575
 10
2342.14
 20
1028.575
 10
2342.14
 20
1007.145
 10
2335.0
 20
1007.145
  0
LWPOLYLINE
  5
DA
330
1F
100
AcDbEntity
  8
text2
100
AcDbPolyline
 90
        8
 70
     1
 43
0.0
 10
2300.5
 20
1118.0
 10
2306.0
 20
1118.0
 10
2311.0
 20
1099.25
 10
2316.0
 20
1118.0
 10
2321.25
 20
1118.0
 10
2313.5
 20
1093.0
 10
2308.5
 20
1093.0
 10
2300.5
 20
1118.0
  0
LWPOLYLINE
  5
DB
330
1F
100
AcDbEntity
  8
text2
100
AcDbPolyline
 90
       67
 70
     1
 43
0.0
 10
2345.75
 20
1111.75
 10
2346.25
 20
1110.0
 10
2341.25
 20
1110.0
 10
2340.75
 20
1111.25
 10
2340.0
 20
1112.5
 10
2339.0
 20
1113.25
 10
2337.75
 20
1114.0
 10
2336.25
 20
1114.25
 10
2335.0
 20
1114.0
 10
2333.75
 20
1113.5
 10
2332.75
 20
1112.75
 10
2331.75
 20
1111.5
 10
2331.25
 20
1110.25
 10
2330.75
 20
1108.75
 10
2330.5
 20
1107.25
 10
2330.5
 20
1103.75
 10
2330.75
 20
1102.25
 10
2331.25
 20
1100.75
 10
2331.75
 20
1099.5
 10
2332.75
 20
1098.25
 10
2333.75
 20
1097.5
 10
2335.0
 20
1097.0
 10
2336.25
 20
1096.75
 10
2337.75
 20
1097.0
 10
2338.75
 20
1097.5
 10
2339.75
 20
1098.25
 10
2340.5
 20
1099.25
 10
2341.0
 20
1100.5
 10
2341.25
 20
1101.75
 10
2336.75
 20
1101.75
 10
2336.75
 20
1105.5
 10
2346.25
 20
1105.5
 10
2346.25
 20
1093.0
 10
2343.5
 20
1093.0
 10
2342.5
 20
1096.0
 10
2341.75
 20
1094.75
 10
2340.5
 20
1094.0
 10
2339.25
 20
1093.25
 10
2337.75
 20
1093.0
 10
2336.25
 20
1092.75
 10
2334.25
 20
1093.0
 10
2332.5
 20
1093.25
 10
2330.75
 20
1094.25
 10
2329.5
 20
1095.25
 10
2328.25
 20
1096.5
 10
2327.25
 20
1098.25
 10
2326.5
 20
1099.75
 10
2326.0
 20
1101.75
 10
2325.75
 20
1103.5
 10
2325.5
 20
1105.5
 10
2325.75
 20
1107.5
 10
2326.0
 20
1109.25
 10
2326.5
 20
1111.25
 10
2327.25
 20
1112.75
 10
2328.25
 20
1114.5
 10
2329.5
 20
1115.75
 10
2330.75
 20
1116.75
 10
2332.5
 20
1117.75
 10
2334.25
 20
1118.25
 10
2336.25
 20
1118.5
 10
2338.25
 20
1118.25
 10
2339.75
 20
1117.75
 10
2341.5
 20
1117.0
 10
2342.75
 20
1116.0
 10
2344.0
 20
1114.75
 10
2345.0
 20
1113.5
 10
2345.75
 20
1111.75
  0
LWPOLYLINE
  5
DC
330
1F
100
AcDbEntity
  8
text2
100
AcDbPolyline
 90
       13
 70
     1
 43
0.0
 10
2366.0
 20
1118.0
 10
2371.25
 20
1118.0
 10
2363.75
 20
1105.5
 10
2371.25
 20
1093.0
 10
2366.0
 20
1093.0
 10
2361.0
 20
1101.25
 10
2356.0
 20
1093.0
 10
2350.5
 20
1093.0
 10
2358.0
 20
1105.5
 10
2350.5
 20
1118.0
 10
2356.0
 20
1118.0
 10
2361.0
 20
1109.75
 10
2366.0
 20
1118.0
  0
LWPOLYLINE
  5
DD
330
1F
100
AcDbEntity
  8
text2
100
AcDbPolyline
 90
       80
 70
     1
 43
0.0
 10
2395.75
 20
1103.0
 10
2396.25
 20
1101.75
 10
2396.25
 20
1100.5
 10
2396.0
 20
1098.5
 10
2395.5
 20
1097.0
 10
2394.25
 20
1095.5
 10
2393.0
 20
1094.5
 10
2391.5
 20
1093.75
 10
2389.75
 20
1093.0
 10
2388.0
 20
1093.0
 10
2386.25
 20
1092.75
 10
2384.5
 20
1093.0
 10
2382.5
 20
1093.25
 10
2380.75
 20
1094.0
 10
2379.25
 20
1095.0
 10
2378.0
 20
1096.25
 10
2376.75
 20
1097.75
 10
2376.0
 20
1099.5
 10
2375.5
 20
1101.25
 10
2380.0
 20
1101.25
 10
2380.5
 20
1100.0
 10
2381.25
 20
1098.75
 10
2382.25
 20
1097.75
 10
2383.5
 20
1097.25
 10
2385.0
 20
1096.75
 10
2387.5
 20
1096.75
 10
2388.75
 20
1097.25
 10
2390.0
 20
1097.75
 10
2391.0
 20
1098.5
 10
2391.5
 20
1099.5
 10
2391.75
 20
1101.0
 10
2391.5
 20
1102.0
 10
2390.75
 20
1103.0
 10
2389.75
 20
1103.75
 10
2388.75
 20
1104.25
 10
2382.5
 20
1104.25
 10
2382.5
 20
1107.5
 10
2386.75
 20
1107.5
 10
2387.75
 20
1107.75
 10
2388.75
 20
1108.25
 10
2389.75
 20
1108.75
 10
2390.25
 20
1109.75
 10
2390.5
 20
1111.0
 10
2390.25
 20
1112.0
 10
2389.5
 20
1113.0
 10
2388.75
 20
1113.5
 10
2387.5
 20
1114.0
 10
2386.5
 20
1114.25
 10
2384.25
 20
1114.25
 10
2383.0
 20
1113.75
 10
2382.0
 20
1113.25
 10
2381.0
 20
1112.5
 10
2380.25
 20
1111.5
 10
2380.0
 20
1110.0
 10
2376.0
 20
1110.0
 10
2376.25
 20
1112.0
 10
2377.0
 20
1113.5
 10
2378.0
 20
1115.0
 10
2379.25
 20
1116.25
 10
2380.75
 20
1117.25
 10
2382.5
 20
1117.75
 10
2384.25
 20
1118.25
 10
2386.0
 20
1118.5
 10
2387.5
 20
1118.25
 10
2389.0
 20
1118.0
 10
2390.5
 20
1117.5
 10
2392.0
 20
1116.75
 10
2393.25
 20
1115.75
 10
2394.25
 20
1114.5
 10
2394.75
 20
1113.0
 10
2395.0
 20
1111.25
 10
2395.0
 20
1110.0
 10
2394.5
 20
1108.75
 10
2393.75
 20
1107.75
 10
2392.75
 20
1107.0
 10
2391.75
 20
1106.25
 10
2393.0
 20
1105.75
 10
2394.0
 20
1105.0
 10
2395.0
 20
1104.25
 10
2395.75
 20
1103.0
  0
LWPOLYLINE
  5
DE
330
1F
100
AcDbEntity
  8
text2
100
AcDbPolyline
 90
        8
 70
     1
 43
0.0
 10
2450.5
 20
1118.0
 10
2456.0
 20
1118.0
 10
2461.0
 20
1099.25
 10
2466.0
 20
1118.0
 10
2471.25
 20
1118.0
 10
2463.5
 20
1093.0
 10
2458.5
 20
1093.0
 10
2450.5
 20
1118.0
  0
LWPOLYLINE
  5
DF
330
1F
100
AcDbEntity
  8
text2
100
AcDbPolyline
 90
       67
 70
     1
 43
0.0
 10
2495.75
 20
1111.75
 10
2496.25
 20
1110.0
 10
2491.25
 20
1110.0
 10
2490.75
 20
1111.25
 10
2490.0
 20
1112.5
 10
2489.0
 20
1113.25
 10
2487.75
 20
1114.0
 10
2486.25
 20
1114.25
 10
2485.0
 20
1114.0
 10
2483.75
 20
1113.5
 10
2482.75
 20
1112.75
 10
2481.75
 20
1111.5
 10
2481.25
 20
1110.25
 10
2480.75
 20
1108.75
 10
2480.5
 20
1107.25
 10
2480.5
 20
1103.75
 10
2480.75
 20
1102.25
 10
2481.25
 20
1100.75
 10
2481.75
 20
1099.5
 10
2482.75
 20
1098.25
 10
2483.75
 20
1097.5
 10
2485.0
 20
1097.0
 10
2486.25
 20
1096.75
 10
2487.75
 20
1097.0
 10
2488.75
 20
1097.5
 10
2489.75
 20
1098.25
 10
2490.5
 20
1099.25
 10
2491.0
 20
1100.5
 10
2491.25
 20
1101.75
 10
2486.75
 20
1101.75
 10
2486.75
 20
1105.5
 10
2496.25
 20
1105.5
 10
2496.25
 20
1093.0
 10
2493.5
 20
1093.0
 10
2492.5
 20
1096.0
 10
2491.75
 20
1094.75
 10
2490.5
 20
1094.0
 10
2489.25
 20
1093.25
 10
2487.75
 20
1093.0
 10
2486.25
 20
1092.75
 10
2484.25
 20
1093.0
 10
2482.5
 20
1093.25
 10
2480.75
 20
1094.25
 10
2479.5
 20
1095.25
 10
2478.25
 20
1096.5
 10
2477.25
 20
1098.25
 10
2476.5
 20
1099.75
 10
2476.0
 20
1101.75
 10
2475.75
 20
1103.5
 10
2475.5
 20
1105.5
 10
2475.75
 20
1107.5
 10
2476.0
 20
1109.25
 10
2476.5
 20
1111.25
 10
2477.25
 20
1112.75
 10
2478.25
 20
1114.5
 10
2479.5
 20
1115.75
 10
2480.75
 20
1116.75
 10
2482.5
 20
1117.75
 10
2484.25
 20
1118.25
 10
2486.25
 20
1118.5
 10
2488.25
 20
1118.25
 10
2489.75
 20
1117.75
 10
2491.5
 20
1117.0
 10
2492.75
 20
1116.0
 10
2494.0
 20
1114.75
 10
2495.0
 20
1113.5
 10
2495.75
 20
1111.75
  0
LWPOLYLINE
  5
E0
330
1F
100
AcDbEntity
  8
text2
100
AcDbPolyline
 90
       13
 70
     1
 43
0.0
 10
2516.0
 20
1118.0
 10
2521.25
 20
1118.0
 10
2513.75
 20
1105.5
 10
2521.25
 20
1093.0
 10
2516.0
 20
1093.0
 10
2511.0
 20
1101.25
 10
2506.0
 20
1093.0
 10
2500.5
 20
1093.0
 10
2508.0
 20
1105.5
 10
2500.5
 20
1118.0
 10
2506.0
 20
1118.0
 10
2511.0
 20
1109.75
 10
2516.0
 20
1118.0
  0
LWPOLYLINE
  5
E1
330
1F
100
AcDbEntity
  8
text2
100
AcDbPolyline
 90
       57
 70
     1
 43
0.0
 10
2525.5
 20
1093.0
 10
2525.5
 20
1095.0
 10
2525.75
 20
1097.5
 10
2526.75
 20
1099.75
 10
2528.0
 20
1101.5
 10
2529.5
 20
1103.0
 10
2531.25
 20
1104.0
 10
2533.0
 20
1105.0
 10
2534.75
 20
1106.0
 10
2538.5
 20
1107.5
 10
2539.5
 20
1108.0
 10
2540.25
 20
1108.75
 10
2541.0
 20
1109.75
 10
2541.25
 20
1111.0
 10
2541.0
 20
1112.25
 10
2540.25
 20
1113.0
 10
2539.25
 20
1113.75
 10
2538.25
 20
1114.0
 10
2537.0
 20
1114.25
 10
2536.0
 20
1114.25
 10
2534.5
 20
1114.0
 10
2533.25
 20
1113.75
 10
2532.0
 20
1113.0
 10
2531.0
 20
1112.25
 10
2530.5
 20
1111.0
 10
2530.0
 20
1109.75
 10
2525.5
 20
1109.75
 10
2525.75
 20
1111.5
 10
2526.5
 20
1113.25
 10
2527.75
 20
1114.75
 10
2529.0
 20
1116.0
 10
2530.5
 20
1117.0
 10
2532.25
 20
1117.75
 10
2534.0
 20
1118.25
 10
2536.0
 20
1118.5
 10
2537.5
 20
1118.25
 10
2539.5
 20
1118.0
 10
2541.25
 20
1117.5
 10
2542.75
 20
1116.5
 10
2544.25
 20
1115.5
 10
2545.25
 20
1114.25
 10
2546.0
 20
1112.5
 10
2546.25
 20
1110.5
 10
2546.0
 20
1108.75
 10
2545.25
 20
1107.5
 10
2544.25
 20
1106.25
 10
2543.0
 20
1105.25
 10
2541.75
 20
1104.75
 10
2536.25
 20
1102.25
 10
2535.25
 20
1101.75
 10
2534.0
 20
1101.0
 10
2532.75
 20
1100.0
 10
2531.75
 20
1098.75
 10
2531.0
 20
1097.25
 10
2546.25
 20
1097.25
 10
2546.25
 20
1093.0
 10
2525.5
 20
1093.0
  0
LWPOLYLINE
  5
E2
330
1F
100
AcDbEntity
  8
text2
100
AcDbPolyline
 90
        8
 70
     1
 43
0.0
 10
2600.5
 20
1118.0
 10
2606.0
 20
1118.0
 10
2611.0
 20
1099.25
 10
2616.0
 20
1118.0
 10
2621.25
 20
1118.0
 10
2613.5
 20
1093.0
 10
2608.5
 20
1093.0
 10
2600.5
 20
1118.0
  0
LWPOLYLINE
  5
E3
330
1F
100
AcDbEntity
  8
text2
100
AcDbPolyline
 90
       23
 70
     1
 43
0.0
 10
2625.5
 20
1093.0
 10
2625.5
 20
1118.0
 10
2636.0
 20
1118.0
 10
2638.0
 20
1117.75
 10
2639.75
 20
1117.25
 10
2641.25
 20
1116.5
 10
2642.5
 20
1115.5
 10
2643.75
 20
1114.0
 10
2644.5
 20
1112.5
 10
2645.25
 20
1111.0
 10
2645.75
 20
1109.25
 10
2646.25
 20
1107.25
 10
2646.25
 20
1103.75
 10
2645.75
 20
1101.75
 10
2645.25
 20
1100.0
 10
2644.5
 20
1098.5
 10
2643.75
 20
1097.0
 10
2642.5
 20
1095.5
 10
2641.25
 20
1094.5
 10
2639.75
 20
1093.75
 10
2638.0
 20
1093.25
 10
2636.0
 20
1093.0
 10
2625.5
 20
1093.0
  0
LWPOLYLINE
  5
E4
330
1F
100
AcDbEntity
  8
text2
100
AcDbPolyline
 90
       13
 70
     1
 43
0.0
 10
2666.0
 20
1118.0
 10
2671.25
 20
1118.0
 10
2663.75
 20
1105.5
 10
2671.25
 20
1093.0
 10
2666.0
 20
1093.0
 10
2661.0
 20
1101.25
 10
2656.0
 20
1093.0
 10
2650.5
 20
1093.0
 10
2658.0
 20
1105.5
 10
2650.5
 20
1118.0
 10
2656.0
 20
1118.0
 10
2661.0
 20
1109.75
 10
2666.0
 20
1118.0
  0
LWPOLYLINE
  5
E5
330
1F
100
AcDbEntity
  8
text2
100
AcDbPolyline
 90
        8
 70
     1
 43
0.0
 10
2724.05
 20
1119.675
 10
2729.55
 20
1119.675
 10
2734.55
 20
1100.925
 10
2739.55
 20
1119.675
 10
2744.8
 20
1119.675
 10
2737.05
 20
1094.675
 10
2732.05
 20
1094.675
 10
2724.05
 20
1119.675
  0
LWPOLYLINE
  5
E6
330
1F
100
AcDbEntity
  8
text2
100
AcDbPolyline
 90
       67
 70
     1
 43
0.0
 10
2769.3
 20
1113.425
 10
2769.8
 20
1111.675
 10
2764.8
 20
1111.675
 10
2764.3
 20
1112.925
 10
2763.55
 20
1114.175
 10
2762.55
 20
1114.925
 10
2761.3
 20
1115.675
 10
2759.8
 20
1115.925
 10
2758.55
 20
1115.675
 10
2757.3
 20
1115.175
 10
2756.3
 20
1114.425
 10
2755.3
 20
1113.175
 10
2754.8
 20
1111.925
 10
2754.3
 20
1110.425
 10
2754.05
 20
1108.925
 10
2754.05
 20
1105.425
 10
2754.3
 20
1103.925
 10
2754.8
 20
1102.425
 10
2755.3
 20
1101.175
 10
2756.3
 20
1099.925
 10
2757.3
 20
1099.175
 10
2758.55
 20
1098.675
 10
2759.8
 20
1098.425
 10
2761.3
 20
1098.675
 10
2762.3
 20
1099.175
 10
2763.3
 20
1099.925
 10
2764.05
 20
1100.925
 10
2764.55
 20
1102.175
 10
2764.8
 20
1103.425
 10
2760.3
 20
1103.425
 10
2760.3
 20
1107.175
 10
2769.8
 20
1107.175
 10
2769.8
 20
1094.675
 10
2767.05
 20
1094.675
 10
2766.05
 20
1097.675
 10
2765.3
 20
1096.425
 10
2764.05
 20
1095.675
 10
2762.8
 20
1094.925
 10
2761.3
 20
1094.675
 10
2759.8
 20
1094.425
 10
2757.8
 20
1094.675
 10
2756.05
 20
1094.925
 10
2754.3
 20
1095.925
 10
2753.05
 20
1096.925
 10
2751.8
 20
1098.175
 10
2750.8
 20
1099.925
 10
2750.05
 20
1101.425
 10
2749.55
 20
1103.425
 10
2749.3
 20
1105.175
 10
2749.05
 20
1107.175
 10
2749.3
 20
1109.175
 10
2749.55
 20
1110.925
 10
2750.05
 20
1112.925
 10
2750.8
 20
1114.425
 10
2751.8
 20
1116.175
 10
2753.05
 20
1117.425
 10
2754.3
 20
1118.425
 10
2756.05
 20
1119.425
 10
2757.8
 20
1119.925
 10
2759.8
 20
1120.175
 10
2761.8
 20
1119.925
 10
2763.3
 20
1119.425
 10
2765.05
 20
1118.675
 10
2766.3
 20
1117.675
 10
2767.55
 20
1116.425
 10
2768.55
 20
1115.175
 10
2769.3
 20
1113.425
  0
LWPOLYLINE
  5
E7
330
1F
100
AcDbEntity
  8
text2
100
AcDbPolyline
 90
        8
 70
     1
 43
0.0
 10
2824.05
 20
1119.675
 10
2829.55
 20
1119.675
 10
2834.55
 20
1100.925
 10
2839.55
 20
1119.675
 10
2844.8
 20
1119.675
 10
2837.05
 20
1094.675
 10
2832.05
 20
1094.675
 10
2824.05
 20
1119.675
  0
LWPOLYLINE
  5
E8
330
1F
100
AcDbEntity
  8
text2
100
AcDbPolyline
 90
       23
 70
     1
 43
0.0
 10
2849.05
 20
1094.675
 10
2849.05
 20
1119.675
 10
2859.55
 20
1119.675
 10
2861.55
 20
1119.425
 10
2863.3
 20
1118.925
 10
2864.8
 20
1118.175
 10
2866.05
 20
1117.175
 10
2867.3
 20
1115.675
 10
2868.05
 20
1114.175
 10
2868.8
 20
1112.675
 10
2869.3
 20
1110.925
 10
2869.8
 20
1108.925
 10
2869.8
 20
1105.425
 10
2869.3
 20
1103.425
 10
2868.8
 20
1101.675
 10
2868.05
 20
1100.175
 10
2867.3
 20
1098.675
 10
2866.05
 20
1097.175
 10
2864.8
 20
1096.175
 10
2863.3
 20
1095.425
 10
2861.55
 20
1094.925
 10
2859.55
 20
1094.675
 10
2849.05
 20
1094.675
  0
ENDSEC
  0
SECTION
  2
OBJECTS
  0
DICTIONARY
  5
C
330
0
100
AcDbDictionary
281
     1
  3
ACAD_GROUP
350
D
  3
ACAD_LAYOUT
350
1A
  3
ACAD_MLEADERSTYLE
350
EA
  3
ACAD_MLINESTYLE
350
17
  3
ACAD_PLOTSETTINGS
350
19
  3
ACAD_PLOTSTYLENAME
350
E
  3
ACAD_SCALELIST
350
3B
  3
ACAD_TABLESTYLE
350
E9
  3
ACAD_VISUALSTYLE
350
2A
  0
DICTIONARY
  5
D
102
{ACAD_REACTORS
330
C
102
}
330
C
100
AcDbDictionary
281
     1
  0
DICTIONARY
  5
1A
102
{ACAD_REACTORS
330
C
102
}
330
C
100
AcDbDictionary
281
     1
  3
Layout1
350
1E
  3
Layout2
350
26
  3
Model
350
22
  0
DICTIONARY
  5
EA
102
{ACAD_REACTORS
330
C
102
}
330
C
100
AcDbDictionary
281
     1
  0
DICTIONARY
  5
17
102
{ACAD_REACTORS
330
C
102
}
330
C
100
AcDbDictionary
281
     1
  3
Standard
350
18
  0
DICTIONARY
  5
19
102
{ACAD_REACTORS
330
C
102
}
330
C
100
AcDbDictionary
281
     1
  0
ACDBDICTIONARYWDFLT
  5
E
102
{ACAD_REACTORS
330
C
102
}
330
C
100
AcDbDictionary
281
     1
  3
Normal
350
F
100
AcDbDictionaryWithDefault
340
F
  0
DICTIONARY
  5
3B
102
{ACAD_REACTORS
330
C
102
}
330
C
100
AcDbDictionary
281
     1
  3
A0
350
3C
  3
A1
350
3D
  3
A2
350
3E
  3
A3
350
3F
  3
A4
350
40
  3
A5
350
41
  3
A6
350
42
  3
A7
350
43
  3
A8
350
44
  3
A9
350
45
  3
B0
350
46
  3
B1
350
47
  3
B2
350
48
  3
B3
350
49
  3
B4
350
4A
  3
B5
350
4B
  3
B6
350
4C
  3
B7
350
4D
  3
B8
350
4E
  3
B9
350
4F
  3
C0
350
50
  3
C1
350
51
  3
C2
350
52
  3
C3
350
53
  3
C4
350
54
  3
C5
350
55
  3
C6
350
56
  3
C7
350
57
  3
C8
350
58
  3
C9
350
59
  3
D0
350
5A
  3
D1
350
5B
  3
D2
350
5C
  0
DICTIONARY
  5
E9
102
{ACAD_REACTORS
330
C
102
}
330
C
100
AcDbDictionary
281
     1
  0
DICTIONARY
  5
2A
102
{ACAD_REACTORS
330
C
102
}
330
C
100
AcDbDictionary
281
     1
  3
2dWireframe
350
2F
  3
3D Hidden
350
31
  3
3dWireframe
350
30
  3
Basic
350
32
  3
Brighten
350
36
  3
ColorChange
350
3A
  3
Conceptual
350
34
  3
Dim
350
35
  3
Facepattern
350
39
  3
Flat
350
2B
  3
FlatWithEdges
350
2C
  3
Gouraud
350
2D
  3
GouraudWithEdges
350
2E
  3
Linepattern
350
38
  3
Realistic
350
33
  3
Thicken
350
37
  0
LAYOUT
  5
1E
102
{ACAD_REACTORS
330
1A
102
}
330
1A
100
AcDbPlotSettings
  1

  2
none_device
  4

  6

 40
0.0
 41
0.0
 42
0.0
 43
0.0
 44
0.0
 45
0.0
 46
0.0
 47
0.0
 48
0.0
 49
0.0
140
0.0
141
0.0
142
1.0
143
1.0
 70
   688
 72
     0
 73
     0
 74
     5
  7

 75
    16
 76
     0
 77
     2
 78
   300
147
1.0
148
0.0
149
0.0
100
AcDbLayout
  1
Layout1
 70
     1
 71
     1
 10
0.0
 20
0.0
 11
12.0
 21
9.0
 12
0.0
 22
0.0
 32
0.0
 14
1.000000000000000E+20
 24
1.000000000000000E+20
 34
1.000000000000000E+20
 15
-1.000000000000000E+20
 25
-1.000000000000000E+20
 35
-1.000000000000000E+20
146
0.0
 13
0.0
 23
0.0
 33
0.0
 16
1.0
 26
0.0
 36
0.0
 17
0.0
 27
1.0
 37
0.0
 76
     0
330
1B
  0
LAYOUT
  5
26
102
{ACAD_REACTORS
330
1A
102
}
330
1A
100
AcDbPlotSettings
  1

  2
none_device
  4

  6

 40
0.0
 41
0.0
 42
0.0
 43
0.0
 44
0.0
 45
0.0
 46
0.0
 47
0.0
 48
0.0
 49
0.0
140
0.0
141
0.0
142
1.0
143
1.0
 70
   688
 72
     0
 73
     0
 74
     5
  7

 75
    16
 76
     0
 77
     2
 78
   300
147
1.0
148
0.0
149
0.0
100
AcDbLayout
  1
Layout2
 70
     1
 71
     2
 10
0.0
 20
0.0
 11
0.0
 21
0.0
 12
0.0
 22
0.0
 32
0.0
 14
0.0
 24
0.0
 34
0.0
 15
0.0
 25
0.0
 35
0.0
146
0.0
 13
0.0
 23
0.0
 33
0.0
 16
1.0
 26
0.0
 36
0.0
 17
0.0
 27
1.0
 37
0.0
 76
     0
330
23
  0
LAYOUT
  5
22
102
{ACAD_REACTORS
330
1A
102
}
330
1A
100
AcDbPlotSettings
  1

  2
none_device
  4

  6

 40
0.0
 41
0.0
 42
0.0
 43
0.0
 44
0.0
 45
0.0
 46
0.0
 47
0.0
 48
0.0
 49
0.0
140
0.0
141
0.0
142
1.0
143
1.0
 70
  1712
 72
     0
 73
     0
 74
     0
  7

 75
     0
 76
     0
 77
     2
 78
   300
147
1.0
148
0.0
149
0.0
100
AcDbLayout
  1
Model
 70
     1
 71
     0
 10
0.0
 20
0.0
 11
12.0
 21
9.0
 12
0.0
 22
0.0
 32
0.0
 14
1.000000000000000E+20
 24
1.000000000000000E+20
 34
1.000000000000000E+20
 15
-1.000000000000000E+20
 25
-1.000000000000000E+20
 35
-1.000000000000000E+20
146
0.0
 13
0.0
 23
0.0
 33
0.0
 16
1.0
 26
0.0
 36
0.0
 17
0.0
 27
1.0
 37
0.0
 76
     0
330
1F
331
29
  0
MLINESTYLE
  5
18
102
{ACAD_REACTORS
330
17
102
}
330
17
100
AcDbMlineStyle
  2
Standard
 70
     0
  3

 62
   256
 51
90.0
 52
90.0
 71
     2
 49
0.5
 62
   256
  6
BYLAYER
 49
-0.5
 62
   256
  6
BYLAYER
  0
ACDBPLACEHOLDER
  5
F
102
{ACAD_REACTORS
330
E
102
}
330
E
  0
SCALE
  5
3C
102
{ACAD_REACTORS
330
3B
102
}
330
3B
100
AcDbScale
 70
     0
300
1:1
140
1.0
141
1.0
290
     1
  0
SCALE
  5
3D
102
{ACAD_REACTORS
330
3B
102
}
330
3B
100
AcDbScale
 70
     0
300
1:2
140
1.0
141
2.0
290
     0
  0
SCALE
  5
3E
102
{ACAD_REACTORS
330
3B
102
}
330
3B
100
AcDbScale
 70
     0
300
1:4
140
1.0
141
4.0
290
     0
  0
SCALE
  5
3F
102
{ACAD_REACTORS
330
3B
102
}
330
3B
100
AcDbScale
 70
     0
300
1:5
140
1.0
141
5.0
290
     0
  0
SCALE
  5
40
102
{ACAD_REACTORS
330
3B
102
}
330
3B
100
AcDbScale
 70
     0
300
1:8
140
1.0
141
8.0
290
     0
  0
SCALE
  5
41
102
{ACAD_REACTORS
330
3B
102
}
330
3B
100
AcDbScale
 70
     0
300
1:10
140
1.0
141
10.0
290
     0
  0
SCALE
  5
42
102
{ACAD_REACTORS
330
3B
102
}
330
3B
100
AcDbScale
 70
     0
300
1:16
140
1.0
141
16.0
290
     0
  0
SCALE
  5
43
102
{ACAD_REACTORS
330
3B
102
}
330
3B
100
AcDbScale
 70
     0
300
1:20
140
1.0
141
20.0
290
     0
  0
SCALE
  5
44
102
{ACAD_REACTORS
330
3B
102
}
330
3B
100
AcDbScale
 70
     0
300
1:30
140
1.0
141
30.0
290
     0
  0
SCALE
  5
45
102
{ACAD_REACTORS
330
3B
102
}
330
3B
100
AcDbScale
 70
     0
300
1:40
140
1.0
141
40.0
290
     0
  0
SCALE
  5
46
102
{ACAD_REACTORS
330
3B
102
}
330
3B
100
AcDbScale
 70
     0
300
1:50
140
1.0
141
50.0
290
     0
  0
SCALE
  5
47
102
{ACAD_REACTORS
330
3B
102
}
330
3B
100
AcDbScale
 70
     0
300
1:100
140
1.0
141
100.0
290
     0
  0
SCALE
  5
48
102
{ACAD_REACTORS
330
3B
102
}
330
3B
100
AcDbScale
 70
     0
300
2:1
140
2.0
141
1.0
290
     0
  0
SCALE
  5
49
102
{ACAD_REACTORS
330
3B
102
}
330
3B
100
AcDbScale
 70
     0
300
4:1
140
4.0
141
1.0
290
     0
  0
SCALE
  5
4A
102
{ACAD_REACTORS
330
3B
102
}
330
3B
100
AcDbScale
 70
     0
300
8:1
140
8.0
141
1.0
290
     0
  0
SCALE
  5
4B
102
{ACAD_REACTORS
330
3B
102
}
330
3B
100
AcDbScale
 70
     0
300
10:1
140
10.0
141
1.0
290
     0
  0
SCALE
  5
4C
102
{ACAD_REACTORS
330
3B
102
}
330
3B
100
AcDbScale
 70
     0
300
100:1
140
100.0
141
1.0
290
     0
  0
SCALE
  5
4D
102
{ACAD_REACTORS
330
3B
102
}
330
3B
100
AcDbScale
 70
     0
300
1/128" = 1'-0"
140
0.0078125
141
12.0
290
     0
  0
SCALE
  5
4E
102
{ACAD_REACTORS
330
3B
102
}
330
3B
100
AcDbScale
 70
     0
300
1/64" = 1'-0"
140
0.015625
141
12.0
290
     0
  0
SCALE
  5
4F
102
{ACAD_REACTORS
330
3B
102
}
330
3B
100
AcDbScale
 70
     0
300
1/32" = 1'-0"
140
0.03125
141
12.0
290
     0
  0
SCALE
  5
50
102
{ACAD_REACTORS
330
3B
102
}
330
3B
100
AcDbScale
 70
     0
300
1/16" = 1'-0"
140
0.0625
141
12.0
290
     0
  0
SCALE
  5
51
102
{ACAD_REACTORS
330
3B
102
}
330
3B
100
AcDbScale
 70
     0
300
3/32" = 1'-0"
140
0.09375
141
12.0
290
     0
  0
SCALE
  5
52
102
{ACAD_REACTORS
330
3B
102
}
330
3B
100
AcDbScale
 70
     0
300
1/8" = 1'-0"
140
0.125
141
12.0
290
     0
  0
SCALE
  5
53
102
{ACAD_REACTORS
330
3B
102
}
330
3B
100
AcDbScale
 70
     0
300
3/16" = 1'-0"
140
0.1875
141
12.0
290
     0
  0
SCALE
  5
54
102
{ACAD_REACTORS
330
3B
102
}
330
3B
100
AcDbScale
 70
     0
300
1/4" = 1'-0"
140
0.25
141
12.0
290
     0
  0
SCALE
  5
55
102
{ACAD_REACTORS
330
3B
102
}
330
3B
100
AcDbScale
 70
     0
300
3/8" = 1'-0"
140
0.375
141
12.0
290
     0
  0
SCALE
  5
56
102
{ACAD_REACTORS
330
3B
102
}
330
3B
100
AcDbScale
 70
     0
300
1/2" = 1'-0"
140
0.5
141
12.0
290
     0
  0
SCALE
  5
57
102
{ACAD_REACTORS
330
3B
102
}
330
3B
100
AcDbScale
 70
     0
300
3/4" = 1'-0"
140
0.75
141
12.0
290
     0
  0
SCALE
  5
58
102
{ACAD_REACTORS
330
3B
102
}
330
3B
100
AcDbScale
 70
     0
300
1" = 1'-0"
140
1.0
141
12.0
290
     0
  0
SCALE
  5
59
102
{ACAD_REACTORS
330
3B
102
}
330
3B
100
AcDbScale
 70
     0
300
1-1/2" = 1'-0"
140
1.5
141
12.0
290
     0
  0
SCALE
  5
5A
102
{ACAD_REACTORS
330
3B
102
}
330
3B
100
AcDbScale
 70
     0
300
3" = 1'-0"
140
3.0
141
12.0
290
     0
  0
SCALE
  5
5B
102
{ACAD_REACTORS
330
3B
102
}
330
3B
100
AcDbScale
 70
     0
300
6" = 1'-0"
140
6.0
141
12.0
290
     0
  0
SCALE
  5
5C
102
{ACAD_REACTORS
330
3B
102
}
330
3B
100
AcDbScale
 70
     0
300
1'-0" = 1'-0"
140
12.0
141
12.0
290
     0
  0
VISUALSTYLE
  5
2F
102
{ACAD_REACTORS
330
2A
102
}
330
2A
100
AcDbVisualStyle
  2
2dWireframe
 70
     4
 71
     0
 72
     2
 73
     0
 90
        0
 40
-0.6
 41
-30.0
 62
     5
 63
     7
421
 16777215
 74
     1
 91
        4
 64
     7
 65
   257
 75
     1
175
     1
 42
1.0
 92
        0
 66
   257
 43
1.0
 76
     1
 77
     6
 78
     2
 67
     7
 79
     5
170
     0
171
     0
290
     0
174
     0
 93
        1
 44
0.0
173
     0
291
     0
 45
0.0
1001
ACAD
1000
AcDbSavedByObjectVersion
1070
     0
  0
VISUALSTYLE
  5
31
102
{ACAD_REACTORS
330
2A
102
}
330
2A
100
AcDbVisualStyle
  2
3D Hidden
 70
     6
 71
     1
 72
     2
 73
     2
 90
        0
 40
-0.6
 41
-30.0
 62
     5
 63
     7
421
 16777215
 74
     2
 91
        2
 64
     7
 65
   257
 75
     2
175
     1
 42
40.0
 92
        0
 66
   257
 43
1.0
 76
     1
 77
     6
 78
     2
 67
     7
 79
     3
170
     0
171
     0
290
     0
174
     0
 93
        1
 44
0.0
173
     0
291
     0
 45
0.0
1001
ACAD
1000
AcDbSavedByObjectVersion
1070
     0
  0
VISUALSTYLE
  5
30
102
{ACAD_REACTORS
330
2A
102
}
330
2A
100
AcDbVisualStyle
  2
3dWireframe
 70
     5
 71
     0
 72
     2
 73
     0
 90
        0
 40
-0.6
 41
-30.0
 62
     5
 63
     7
421
 16777215
 74
     1
 91
        4
 64
     7
 65
   257
 75
     1
175
     1
 42
1.0
 92
        0
 66
   257
 43
1.0
 76
     1
 77
     6
 78
     2
 67
     7
 79
     5
170
     0
171
     0
290
     0
174
     0
 93
        1
 44
0.0
173
     0
291
     0
 45
0.0
1001
ACAD
1000
AcDbSavedByObjectVersion
1070
     0
  0
VISUALSTYLE
  5
32
102
{ACAD_REACTORS
330
2A
102
}
330
2A
100
AcDbVisualStyle
  2
Basic
 70
     7
 71
     1
 72
     0
 73
     1
 90
        0
 40
-0.6
 41
-30.0
 62
     5
 63
     7
421
 16777215
 74
     0
 91
        4
 64
     7
 65
   257
 75
     1
175
     1
 42
1.0
 92
        8
 66
     7
 43
1.0
 76
     1
 77
     6
 78
     2
 67
     7
 79
     5
170
     0
171
     0
290
     0
174
     0
 93
        1
 44
0.0
173
     0
291
     1
 45
0.0
1001
ACAD
1000
AcDbSavedByObjectVersion
1070
     0
  0
VISUALSTYLE
  5
36
102
{ACAD_REACTORS
330
2A
102
}
330
2A
100
AcDbVisualStyle
  2
Brighten
 70
    12
 71
     2
 72
     2
 73
     0
 90
        0
 40
-0.6
 41
-30.0
 62
     5
 63
     7
421
 16777215
 74
     1
 91
        4
 64
     7
 65
   257
 75
     1
175
     1
 42
1.0
 92
        8
 66
     7
 43
1.0
 76
     1
 77
     6
 78
     2
 67
     7
 79
     5
170
     0
171
     0
290
     0
174
     0
 93
        1
 44
50.0
173
     0
291
     1
 45
0.0
1001
ACAD
1000
AcDbSavedByObjectVersion
1070
     0
  0
VISUALSTYLE
  5
3A
102
{ACAD_REACTORS
330
2A
102
}
330
2A
100
AcDbVisualStyle
  2
ColorChange
 70
    16
 71
     2
 72
     2
 73
     3
 90
        0
 40
-0.6
 41
-30.0
 62
     5
 63
     8
421
  8421504
 74
     1
 91
        4
 64
     7
 65
   257
 75
     1
175
     1
 42
1.0
 92
        8
 66
     8
424
  8421504
 43
1.0
 76
     1
 77
     6
 78
     2
 67
     7
 79
     5
170
     0
171
     0
290
     0
174
     0
 93
        1
 44
0.0
173
     0
291
     1
 45
0.0
1001
ACAD
1000
AcDbSavedByObjectVersion
1070
     0
  0
VISUALSTYLE
  5
34
102
{ACAD_REACTORS
330
2A
102
}
330
2A
100
AcDbVisualStyle
  2
Conceptual
 70
     9
 71
     3
 72
     2
 73
     0
 90
        0
 40
-0.6
 41
-30.0
 62
     5
 63
     7
421
 16777215
 74
     2
 91
        2
 64
     7
 65
   257
 75
     1
175
     1
 42
40.0
 92
        8
 66
     7
 43
1.0
 76
     1
 77
     6
 78
     2
 67
     7
 79
     3
170
     0
171
     0
290
     0
174
     0
 93
        1
 44
0.0
173
     0
291
     0
 45
0.0
1001
ACAD
1000
AcDbSavedByObjectVersion
1070
     0
  0
VISUALSTYLE
  5
35
102
{ACAD_REACTORS
330
2A
102
}
330
2A
100
AcDbVisualStyle
  2
Dim
 70
    11
 71
     2
 72
     2
 73
     0
 90
        0
 40
-0.6
 41
-30.0
 62
     5
 63
     7
421
 16777215
 74
     1
 91
        4
 64
     7
 65
   257
 75
     1
175
     1
 42
1.0
 92
        8
 66
     7
 43
1.0
 76
     1
 77
     6
 78
     2
 67
     7
 79
     5
170
     0
171
     0
290
     0
174
     0
 93
        1
 44
-50.0
173
     0
291
     1
 45
0.0
1001
ACAD
1000
AcDbSavedByObjectVersion
1070
     0
  0
VISUALSTYLE
  5
39
102
{ACAD_REACTORS
330
2A
102
}
330
2A
100
AcDbVisualStyle
  2
Facepattern
 70
    15
 71
     2
 72
     2
 73
     0
 90
        0
 40
-0.6
 41
-30.0
 62
     5
 63
     7
421
 16777215
 74
     1
 91
        4
 64
     7
 65
   257
 75
     1
175
     1
 42
1.0
 92
        8
 66
     7
 43
1.0
 76
     1
 77
     6
 78
     2
 67
     7
 79
     5
170
     0
171
     0
290
     0
174
     0
 93
        1
 44
0.0
173
     0
291
     1
 45
0.0
1001
ACAD
1000
AcDbSavedByObjectVersion
1070
     0
  0
VISUALSTYLE
  5
2B
102
{ACAD_REACTORS
330
2A
102
}
330
2A
100
AcDbVisualStyle
  2
Flat
 70
     0
 71
     2
 72
     1
 73
     1
 90
        2
 40
-0.6
 41
30.0
 62
     5
 63
     7
421
 16777215
 74
     0
 91
        4
 64
     7
 65
   257
 75
     1
175
     1
 42
1.0
 92
        8
 66
     7
 43
1.0
 76
     1
 77
     6
 78
     2
 67
     7
 79
     5
170
     0
171
     0
290
     0
174
     0
 93
       13
 44
0.0
173
     0
291
     1
 45
0.0
1001
ACAD
1000
AcDbSavedByObjectVersion
1070
     0
  0
VISUALSTYLE
  5
2C
102
{ACAD_REACTORS
330
2A
102
}
330
2A
100
AcDbVisualStyle
  2
FlatWithEdges
 70
     1
 71
     2
 72
     1
 73
     1
 90
        2
 40
-0.6
 41
30.0
 62
     5
 63
     7
421
 16777215
 74
     1
 91
        4
 64
     7
 65
   257
 75
     1
175
     1
 42
1.0
 92
        0
 66
   257
 43
1.0
 76
     1
 77
     6
 78
     2
 67
     7
 79
     5
170
     0
171
     0
290
     0
174
     0
 93
       13
 44
0.0
173
     0
291
     1
 45
0.0
1001
ACAD
1000
AcDbSavedByObjectVersion
1070
     0
  0
VISUALSTYLE
  5
2D
102
{ACAD_REACTORS
330
2A
102
}
330
2A
100
AcDbVisualStyle
  2
Gouraud
 70
     2
 71
     2
 72
     2
 73
     1
 90
        2
 40
-0.6
 41
30.0
 62
     5
 63
     7
421
 16777215
 74
     0
 91
        4
 64
     7
 65
   257
 75
     1
175
     1
 42
1.0
 92
        0
 66
     7
 43
1.0
 76
     1
 77
     6
 78
     2
 67
     7
 79
     5
170
     0
171
     0
290
     0
174
     0
 93
       13
 44
0.0
173
     0
291
     1
 45
0.0
1001
ACAD
1000
AcDbSavedByObjectVersion
1070
     0
  0
VISUALSTYLE
  5
2E
102
{ACAD_REACTORS
330
2A
102
}
330
2A
100
AcDbVisualStyle
  2
GouraudWithEdges
 70
     3
 71
     2
 72
     2
 73
     1
 90
        2
 40
-0.6
 41
30.0
 62
     5
 63
     7
421
 16777215
 74
     1
 91
        4
 64
     7
 65
   257
 75
     1
175
     1
 42
1.0
 92
        0
 66
   257
 43
1.0
 76
     1
 77
     6
 78
     2
 67
     7
 79
     5
170
     0
171
     0
290
     0
174
     0
 93
       13
 44
0.0
173
     0
291
     1
 45
0.0
1001
ACAD
1000
AcDbSavedByObjectVersion
1070
     0
  0
VISUALSTYLE
  5
38
102
{ACAD_REACTORS
330
2A
102
}
330
2A
100
AcDbVisualStyle
  2
Linepattern
 70
    14
 71
     2
 72
     2
 73
     0
 90
        0
 40
-0.6
 41
-30.0
 62
     5
 63
     7
421
 16777215
 74
     1
 91
        4
 64
     7
 65
   257
 75
     7
175
     7
 42
1.0
 92
        8
 66
     7
 43
1.0
 76
     1
 77
     6
 78
     2
 67
     7
 79
     5
170
     0
171
     0
290
     0
174
     0
 93
        1
 44
0.0
173
     0
291
     1
 45
0.0
1001
ACAD
1000
AcDbSavedByObjectVersion
1070
     0
  0
VISUALSTYLE
  5
33
102
{ACAD_REACTORS
330
2A
102
}
330
2A
100
AcDbVisualStyle
  2
Realistic
 70
     8
 71
     2
 72
     2
 73
     0
 90
        0
 40
-0.6
 41
-30.0
 62
     5
 63
     7
421
 16777215
 74
     1
 91
        0
 64
     7
 65
   257
 75
     1
175
     1
 42
1.0
 92
        8
 66
     8
424
  7895160
 43
1.0
 76
     1
 77
     6
 78
     2
 67
     7
 79
     5
170
     0
171
     0
290
     0
174
     0
 93
       13
 44
0.0
173
     0
291
     0
 45
0.0
1001
ACAD
1000
AcDbSavedByObjectVersion
1070
     0
  0
VISUALSTYLE
  5
37
102
{ACAD_REACTORS
330
2A
102
}
330
2A
100
AcDbVisualStyle
  2
Thicken
 70
    13
 71
     2
 72
     2
 73
     0
 90
        0
 40
-0.6
 41
-30.0
 62
     5
 63
     7
421
 16777215
 74
     1
 91
        4
 64
     7
 65
   257
 75
     1
175
     1
 42
1.0
 92
       12
 66
     7
 43
1.0
 76
     1
 77
     6
 78
     2
 67
     7
 79
     5
170
     0
171
     0
290
     0
174
     0
 93
        1
 44
0.0
173
     0
291
     1
 45
0.0
1001
ACAD
1000
AcDbSavedByObjectVersion
1070
     0
  0
ENDSEC
  0
EOF
