  0
SECTION
  2
HEADER
  9
$ACADVER
  1
AC1018
  9
$ACADMAINTVER
 70
     0
  9
$DWGCODEPAGE
  3
ANSI_1252
  9
$INSBASE
 10
0.0
 20
0.0
 30
0.0
  9
$EXTMIN
 10
1.000000000000000E+20
 20
1.000000000000000E+20
 30
1.000000000000000E+20
  9
$EXTMAX
 10
-1.000000000000000E+20
 20
-1.000000000000000E+20
 30
-1.000000000000000E+20
  9
$LIMMIN
 10
0.0
 20
0.0
  9
$LIMMAX
 10
12.0
 20
9.0
  9
$ORTHOMODE
 70
     0
  9
$REGENMODE
 70
     1
  9
$FILLMODE
 70
     1
  9
$QTEXTMODE
 70
     0
  9
$MIRRTEXT
 70
     1
  9
$LTSCALE
 40
1.0
  9
$ATTMODE
 70
     1
  9
$TEXTSIZE
 40
0.2
  9
$TRACEWID
 40
0.05
  9
$TEXTSTYLE
  7
Standard
  9
$CLAYER
  8
0
  9
$CELTYPE
  6
ByLayer
  9
$CECOLOR
 62
   256
  9
$CELTSCALE
 40
1.0
  9
$DISPSILH
 70
     0
  9
$DIMSCALE
 40
1.0
  9
$DIMASZ
 40
0.18
  9
$DIMEXO
 40
0.0625
  9
$DIMDLI
 40
0.38
  9
$DIMRND
 40
0.0
  9
$DIMDLE
 40
0.0
  9
$DIMEXE
 40
0.18
  9
$DIMTP
 40
0.0
  9
$DIMTM
 40
0.0
  9
$DIMTXT
 40
0.18
  9
$DIMCEN
 40
0.09
  9
$DIMTSZ
 40
0.0
  9
$DIMTOL
 70
     0
  9
$DIMLIM
 70
     0
  9
$DIMTIH
 70
     1
  9
$DIMTOH
 70
     1
  9
$DIMSE1
 70
     0
  9
$DIMSE2
 70
     0
  9
$DIMTAD
 70
     0
  9
$DIMZIN
 70
     0
  9
$DIMBLK
  1

  9
$DIMASO
 70
     1
  9
$DIMSHO
 70
     1
  9
$DIMPOST
  1

  9
$DIMAPOST
  1

  9
$DIMALT
 70
     0
  9
$DIMALTD
 70
     2
  9
$DIMALTF
 40
25.4
  9
$DIMLFAC
 40
1.0
  9
$DIMTOFL
 70
     0
  9
$DIMTVP
 40
0.0
  9
$DIMTIX
 70
     0
  9
$DIMSOXD
 70
     0
  9
$DIMSAH
 70
     0
  9
$DIMBLK1
  1

  9
$DIMBLK2
  1

  9
$DIMSTYLE
  2
Standard
  9
$DIMCLRD
 70
     0
  9
$DIMCLRE
 70
     0
  9
$DIMCLRT
 70
     0
  9
$DIMTFAC
 40
1.0
  9
$DIMGAP
 40
0.09
  9
$DIMJUST
 70
     0
  9
$DIMSD1
 70
     0
  9
$DIMSD2
 70
     0
  9
$DIMTOLJ
 70
     1
  9
$DIMTZIN
 70
     0
  9
$DIMALTZ
 70
     0
  9
$DIMALTTZ
 70
     0
  9
$DIMUPT
 70
     0
  9
$DIMDEC
 70
     4
  9
$DIMTDEC
 70
     4
  9
$DIMALTU
 70
     2
  9
$DIMALTTD
 70
     2
  9
$DIMTXSTY
  7
Standard
  9
$DIMAUNIT
 70
     0
  9
$DIMADEC
 70
     0
  9
$DIMALTRND
 40
0.0
  9
$DIMAZIN
 70
     0
  9
$DIMDSEP
 70
    46
  9
$DIMATFIT
 70
     3
  9
$DIMFRAC
 70
     0
  9
$DIMLDRBLK
  1

  9
$DIMLUNIT
 70
     2
  9
$DIMLWD
 70
    -2
  9
$DIMLWE
 70
    -2
  9
$DIMTMOVE
 70
     0
  9
$LUNITS
 70
     2
  9
$LUPREC
 70
     4
  9
$SKETCHINC
 40
0.1
  9
$FILLETRAD
 40
0.5
  9
$AUNITS
 70
     0
  9
$AUPREC
 70
     0
  9
$MENU
  1
.
  9
$ELEVATION
 40
0.0
  9
$PELEVATION
 40
0.0
  9
$THICKNESS
 40
0.0
  9
$LIMCHECK
 70
     0
  9
$CHAMFERA
 40
0.5
  9
$CHAMFERB
 40
0.5
  9
$CHAMFERC
 40
1.0
  9
$CHAMFERD
 40
0.0
  9
$SKPOLY
 70
     0
  9
$TDCREATE
 40
2456750.819356204
  9
$TDUCREATE
 40
2456750.736022871
  9
$TDUPDATE
 40
2456750.819356215
  9
$TDUUPDATE
 40
2456750.736022882
  9
$TDINDWG
 40
0.0000000116
  9
$TDUSRTIMER
 40
0.0000000116
  9
$USRTIMER
 70
     1
  9
$ANGBASE
 50
0.0
  9
$ANGDIR
 70
     0
  9
$PDMODE
 70
     0
  9
$PDSIZE
 40
0.0
  9
$PLINEWID
 40
0.0
  9
$SPLFRAME
 70
     0
  9
$SPLINETYPE
 70
     6
  9
$SPLINESEGS
 70
     8
  9
$HANDSEED
  5
BF
  9
$SURFTAB1
 70
     6
  9
$SURFTAB2
 70
     6
  9
$SURFTYPE
 70
     6
  9
$SURFU
 70
     6
  9
$SURFV
 70
     6
  9
$UCSBASE
  2

  9
$UCSNAME
  2

  9
$UCSORG
 10
0.0
 20
0.0
 30
0.0
  9
$UCSXDIR
 10
1.0
 20
0.0
 30
0.0
  9
$UCSYDIR
 10
0.0
 20
1.0
 30
0.0
  9
$UCSORTHOREF
  2

  9
$UCSORTHOVIEW
 70
     0
  9
$UCSORGTOP
 10
0.0
 20
0.0
 30
0.0
  9
$UCSORGBOTTOM
 10
0.0
 20
0.0
 30
0.0
  9
$UCSORGLEFT
 10
0.0
 20
0.0
 30
0.0
  9
$UCSORGRIGHT
 10
0.0
 20
0.0
 30
0.0
  9
$UCSORGFRONT
 10
0.0
 20
0.0
 30
0.0
  9
$UCSORGBACK
 10
0.0
 20
0.0
 30
0.0
  9
$PUCSBASE
  2

  9
$PUCSNAME
  2

  9
$PUCSORG
 10
0.0
 20
0.0
 30
0.0
  9
$PUCSXDIR
 10
1.0
 20
0.0
 30
0.0
  9
$PUCSYDIR
 10
0.0
 20
1.0
 30
0.0
  9
$PUCSORTHOREF
  2

  9
$PUCSORTHOVIEW
 70
     0
  9
$PUCSORGTOP
 10
0.0
 20
0.0
 30
0.0
  9
$PUCSORGBOTTOM
 10
0.0
 20
0.0
 30
0.0
  9
$PUCSORGLEFT
 10
0.0
 20
0.0
 30
0.0
  9
$PUCSORGRIGHT
 10
0.0
 20
0.0
 30
0.0
  9
$PUCSORGFRONT
 10
0.0
 20
0.0
 30
0.0
  9
$PUCSORGBACK
 10
0.0
 20
0.0
 30
0.0
  9
$USERI1
 70
     0
  9
$USERI2
 70
     0
  9
$USERI3
 70
     0
  9
$USERI4
 70
     0
  9
$USERI5
 70
     0
  9
$USERR1
 40
0.0
  9
$USERR2
 40
0.0
  9
$USERR3
 40
0.0
  9
$USERR4
 40
0.0
  9
$USERR5
 40
0.0
  9
$WORLDVIEW
 70
     1
  9
$SHADEDGE
 70
     3
  9
$SHADEDIF
 70
    70
  9
$TILEMODE
 70
     1
  9
$MAXACTVP
 70
    64
  9
$PINSBASE
 10
0.0
 20
0.0
 30
0.0
  9
$PLIMCHECK
 70
     0
  9
$PEXTMIN
 10
1.000000000000000E+20
 20
1.000000000000000E+20
 30
1.000000000000000E+20
  9
$PEXTMAX
 10
-1.000000000000000E+20
 20
-1.000000000000000E+20
 30
-1.000000000000000E+20
  9
$PLIMMIN
 10
0.0
 20
0.0
  9
$PLIMMAX
 10
12.0
 20
9.0
  9
$UNITMODE
 70
     0
  9
$VISRETAIN
 70
     1
  9
$PLINEGEN
 70
     0
  9
$PSLTSCALE
 70
     1
  9
$TREEDEPTH
 70
  3020
  9
$CMLSTYLE
  2
Standard
  9
$CMLJUST
 70
     0
  9
$CMLSCALE
 40
1.0
  9
$PROXYGRAPHICS
 70
     1
  9
$MEASUREMENT
 70
     0
  9
$CELWEIGHT
370
    -1
  9
$ENDCAPS
280
     0
  9
$JOINSTYLE
280
     0
  9
$LWDISPLAY
290
     0
  9
$INSUNITS
 70
    13
  9
$HYPERLINKBASE
  1

  9
$STYLESHEET
  1

  9
$XEDIT
290
     1
  9
$CEPSNTYPE
380
     0
  9
$PSTYLEMODE
290
     1
  9
$FINGERPRINTGUID
  2
{53A90F8F-FA85-48F4-86CF-DE5A93F07E4F}
  9
$VERSIONGUID
  2
{FAEB1C32-E019-11D5-929B-00C0DF256EC4}
  9
$EXTNAMES
290
     1
  9
$PSVPSCALE
 40
0.0
  9
$OLESTARTUP
290
     0
  9
$SORTENTS
280
   127
  9
$INDEXCTL
280
     0
  9
$HIDETEXT
280
     1
  9
$XCLIPFRAME
290
     0
  9
$HALOGAP
280
     0
  9
$OBSCOLOR
 70
   257
  9
$OBSLTYPE
280
     0
  9
$INTERSECTIONDISPLAY
280
     0
  9
$INTERSECTIONCOLOR
 70
   257
  9
$DIMASSOC
280
     2
  9
$PROJECTNAME
  1

  0
ENDSEC
  0
SECTION
  2
CLASSES
  0
CLASS
  1
ACDBDICTIONARYWDFLT
  2
AcDbDictionaryWithDefault
  3
ObjectDBX Classes
 90
        0
 91
        6
280
     0
281
     0
  0
CLASS
  1
VISUALSTYLE
  2
AcDbVisualStyle
  3
ObjectDBX Classes
 90
     4095
 91
        6
280
     0
281
     0
  0
CLASS
  1
SCALE
  2
AcDbScale
  3
ObjectDBX Classes
 90
     1153
 91
        6
280
     0
281
     0
  0
ENDSEC
  0
SECTION
  2
TABLES
  0
TABLE
  2
VPORT
  5
8
330
0
100
AcDbSymbolTable
 70
     1
  0
VPORT
  5
29
330
8
100
AcDbSymbolTableRecord
100
AcDbViewportTableRecord
  2
*Active
 70
     0
 10
0.0
 20
0.0
 11
1.0
 21
1.0
 12
10.42990654205607
 22
4.5
 13
0.0
 23
0.0
 14
0.5
 24
0.5
 15
0.5
 25
0.5
 16
0.0
 26
0.0
 36
1.0
 17
0.0
 27
0.0
 37
0.0
 40
9.0
 41
1.972972972850329
 42
50.0
 43
0.0
 44
0.0
 50
0.0
 51
0.0
 71
     0
 72
   100
 73
     1
 74
     3
 75
     0
 76
     0
 77
     0
 78
     0
281
     0
 65
     1
110
0.0
120
0.0
130
0.0
111
1.0
121
0.0
131
0.0
112
0.0
122
1.0
132
0.0
 79
     0
146
0.0
  0
ENDTAB
  0
TABLE
  2
LTYPE
  5
5
330
0
100
AcDbSymbolTable
 70
     1
  0
LTYPE
  5
14
330
5
100
AcDbSymbolTableRecord
100
AcDbLinetypeTableRecord
  2
ByBlock
 70
     0
  3

 72
    65
 73
     0
 40
0.0
  0
LTYPE
  5
15
330
5
100
AcDbSymbolTableRecord
100
AcDbLinetypeTableRecord
  2
ByLayer
 70
     0
  3

 72
    65
 73
     0
 40
0.0
  0
LTYPE
  5
16
330
5
100
AcDbSymbolTableRecord
100
AcDbLinetypeTableRecord
  2
Continuous
 70
     0
  3
Solid line
 72
    65
 73
     0
 40
0.0
  0
ENDTAB
  0
TABLE
  2
LAYER
  5
2
330
0
100
AcDbSymbolTable
 70
     2
  0
LAYER
  5
10
330
2
100
AcDbSymbolTableRecord
100
AcDbLayerTableRecord
  2
0
 70
     0
 62
     7
  6
Continuous
370
    -3
390
F
  0
LAYER
  5
5E
330
2
100
AcDbSymbolTableRecord
100
AcDbLayerTableRecord
  2
text2
 70
     0
 62
    16
420
  8388608
  6
Continuous
370
    -3
390
F
  0
ENDTAB
  0
TABLE
  2
STYLE
  5
3
330
0
100
AcDbSymbolTable
 70
     1
  0
STYLE
  5
11
330
3
100
AcDbSymbolTableRecord
100
AcDbTextStyleTableRecord
  2
Standard
 70
     0
 40
0.0
 41
1.0
 50
0.0
 71
     0
 42
0.2
  3
txt
  4

  0
ENDTAB
  0
TABLE
  2
VIEW
  5
6
330
0
100
AcDbSymbolTable
 70
     0
  0
ENDTAB
  0
TABLE
  2
UCS
  5
7
330
0
100
AcDbSymbolTable
 70
     0
  0
ENDTAB
  0
TABLE
  2
APPID
  5
9
330
0
100
AcDbSymbolTable
 70
     1
  0
APPID
  5
12
330
9
100
AcDbSymbolTableRecord
100
AcDbRegAppTableRecord
  2
ACAD
 70
     0
  0
ENDTAB
  0
TABLE
  2
DIMSTYLE
  5
A
330
0
100
AcDbSymbolTable
 70
     1
100
AcDbDimStyleTable
  0
DIMSTYLE
105
27
330
A
100
AcDbSymbolTableRecord
100
AcDbDimStyleTableRecord
  2
Standard
 70
     0
340
11
  0
ENDTAB
  0
TABLE
  2
BLOCK_RECORD
  5
1
330
0
100
AcDbSymbolTable
 70
     1
  0
BLOCK_RECORD
  5
1F
330
1
100
AcDbSymbolTableRecord
100
AcDbBlockTableRecord
  2
*Model_Space
340
22
  0
BLOCK_RECORD
  5
1B
330
1
100
AcDbSymbolTableRecord
100
AcDbBlockTableRecord
  2
*Paper_Space
340
1E
  0
BLOCK_RECORD
  5
23
330
1
100
AcDbSymbolTableRecord
100
AcDbBlockTableRecord
  2
*Paper_Space0
340
26
  0
ENDTAB
  0
ENDSEC
  0
SECTION
  2
BLOCKS
  0
BLOCK
  5
20
330
1F
100
AcDbEntity
  8
0
100
AcDbBlockBegin
  2
*Model_Space
 70
     0
 10
0.0
 20
0.0
 30
0.0
  3
*Model_Space
  1

  0
ENDBLK
  5
21
330
1F
100
AcDbEntity
  8
0
100
AcDbBlockEnd
  0
BLOCK
  5
1C
330
1B
100
AcDbEntity
 67
     1
  8
0
100
AcDbBlockBegin
  2
*Paper_Space
 70
     0
 10
0.0
 20
0.0
 30
0.0
  3
*Paper_Space
  1

  0
ENDBLK
  5
1D
330
1B
100
AcDbEntity
 67
     1
  8
0
100
AcDbBlockEnd
  0
BLOCK
  5
24
330
23
100
AcDbEntity
  8
0
100
AcDbBlockBegin
  2
*Paper_Space0
 70
     0
 10
0.0
 20
0.0
 30
0.0
  3
*Paper_Space0
  1

  0
ENDBLK
  5
25
330
23
100
AcDbEntity
  8
0
100
AcDbBlockEnd
  0
ENDSEC
  0
SECTION
  2
ENTITIES
  0
LWPOLYLINE
  5
5D
330
1F
100
AcDbEntity
  8
text2
100
AcDbPolyline
 90
        4
 70
     1
 43
0.0
 10
1252.5
 20
2434.0
 10
1252.5
 20
2339.0
 10
1347.5
 20
2339.0
 10
1347.5
 20
2434.0
  0
LWPOLYLINE
  5
5F
330
1F
100
AcDbEntity
  8
text2
100
AcDbPolyline
 90
        4
 70
     1
 43
0.0
 10
1402.5
 20
2434.0
 10
1402.5
 20
2339.0
 10
1497.5
 20
2339.0
 10
1497.5
 20
2434.0
  0
LWPOLYLINE
  5
60
330
1F
100
AcDbEntity
  8
text2
100
AcDbPolyline
 90
        4
 70
     1
 43
0.0
 10
1552.5
 20
2434.0
 10
1552.5
 20
2339.0
 10
1647.5
 20
2339.0
 10
1647.5
 20
2434.0
  0
LWPOLYLINE
  5
61
330
1F
100
AcDbEntity
  8
text2
100
AcDbPolyline
 90
        4
 70
     1
 43
0.0
 10
1702.5
 20
2434.0
 10
1702.5
 20
2339.0
 10
1797.5
 20
2339.0
 10
1797.5
 20
2434.0
  0
LWPOLYLINE
  5
62
330
1F
100
AcDbEntity
  8
text2
100
AcDbPolyline
 90
        4
 70
     1
 43
0.0
 10
1852.5
 20
2434.0
 10
1852.5
 20
2339.0
 10
1947.5
 20
2339.0
 10
1947.5
 20
2434.0
  0
LWPOLYLINE
  5
63
330
1F
100
AcDbEntity
  8
text2
100
AcDbPolyline
 90
        4
 70
     1
 43
0.0
 10
2002.5
 20
2434.0
 10
2002.5
 20
2339.0
 10
2097.5
 20
2339.0
 10
2097.5
 20
2434.0
  0
LWPOLYLINE
  5
64
330
1F
100
AcDbEntity
  8
text2
100
AcDbPolyline
 90
        4
 70
     1
 43
0.0
 10
2152.5
 20
2434.0
 10
2152.5
 20
2339.0
 10
2247.5
 20
2339.0
 10
2247.5
 20
2434.0
  0
LWPOLYLINE
  5
65
330
1F
100
AcDbEntity
  8
text2
100
AcDbPolyline
 90
        4
 70
     1
 43
0.0
 10
2302.5
 20
2434.0
 10
2302.5
 20
2339.0
 10
2397.5
 20
2339.0
 10
2397.5
 20
2434.0
  0
LWPOLYLINE
  5
66
330
1F
100
AcDbEntity
  8
text2
100
AcDbPolyline
 90
        4
 70
     1
 43
0.0
 10
2452.5
 20
2434.0
 10
2452.5
 20
2339.0
 10
2547.5
 20
2339.0
 10
2547.5
 20
2434.0
  0
LWPOLYLINE
  5
67
330
1F
100
AcDbEntity
  8
text2
100
AcDbPolyline
 90
        4
 70
     1
 43
0.0
 10
2602.5
 20
2434.0
 10
2602.5
 20
2339.0
 10
2697.5
 20
2339.0
 10
2697.5
 20
2434.0
  0
LWPOLYLINE
  5
68
330
1F
100
AcDbEntity
  8
text2
100
AcDbPolyline
 90
        4
 70
     1
 43
0.0
 10
2752.5
 20
2434.0
 10
2752.5
 20
2339.0
 10
2847.5
 20
2339.0
 10
2847.5
 20
2434.0
  0
LWPOLYLINE
  5
69
330
1F
100
AcDbEntity
  8
text2
100
AcDbPolyline
 90
        4
 70
     1
 43
0.0
 10
2902.5
 20
2434.0
 10
2902.5
 20
2339.0
 10
2997.5
 20
2339.0
 10
2997.5
 20
2434.0
  0
LWPOLYLINE
  5
6A
330
1F
100
AcDbEntity
  8
text2
100
AcDbPolyline
 90
        4
 70
     1
 43
0.0
 10
3052.5
 20
2434.0
 10
3052.5
 20
2339.0
 10
3147.5
 20
2339.0
 10
3147.5
 20
2434.0
  0
LWPOLYLINE
  5
6B
330
1F
100
AcDbEntity
  8
text2
100
AcDbPolyline
 90
        4
 70
     1
 43
0.0
 10
3202.5
 20
2434.0
 10
3202.5
 20
2339.0
 10
3297.5
 20
2339.0
 10
3297.5
 20
2434.0
  0
LWPOLYLINE
  5
6C
330
1F
100
AcDbEntity
  8
text2
100
AcDbPolyline
 90
        4
 70
     1
 43
0.0
 10
3352.5
 20
2434.0
 10
3352.5
 20
2339.0
 10
3447.5
 20
2339.0
 10
3447.5
 20
2434.0
  0
LWPOLYLINE
  5
6D
330
1F
100
AcDbEntity
  8
text2
100
AcDbPolyline
 90
        4
 70
     1
 43
0.0
 10
3502.5
 20
2434.0
 10
3502.5
 20
2339.0
 10
3597.5
 20
2339.0
 10
3597.5
 20
2434.0
  0
LWPOLYLINE
  5
6E
330
1F
100
AcDbEntity
  8
text2
100
AcDbPolyline
 90
        4
 70
     1
 43
0.0
 10
3652.5
 20
2434.0
 10
3652.5
 20
2339.0
 10
3747.5
 20
2339.0
 10
3747.5
 20
2434.0
  0
LWPOLYLINE
  5
6F
330
1F
100
AcDbEntity
  8
text2
100
AcDbPolyline
 90
        4
 70
     1
 43
0.0
 10
152.5
 20
161.0
 10
152.5
 20
66.0
 10
247.5
 20
66.0
 10
247.5
 20
161.0
  0
LWPOLYLINE
  5
70
330
1F
100
AcDbEntity
  8
text2
100
AcDbPolyline
 90
        4
 70
     1
 43
0.0
 10
302.5
 20
161.0
 10
302.5
 20
66.0
 10
397.5
 20
66.0
 10
397.5
 20
161.0
  0
LWPOLYLINE
  5
71
330
1F
100
AcDbEntity
  8
text2
100
AcDbPolyline
 90
        4
 70
     1
 43
0.0
 10
452.5
 20
161.0
 10
452.5
 20
66.0
 10
547.5
 20
66.0
 10
547.5
 20
161.0
  0
LWPOLYLINE
  5
72
330
1F
100
AcDbEntity
  8
text2
100
AcDbPolyline
 90
        4
 70
     1
 43
0.0
 10
602.5
 20
161.0
 10
602.5
 20
66.0
 10
697.5
 20
66.0
 10
697.5
 20
161.0
  0
LWPOLYLINE
  5
73
330
1F
100
AcDbEntity
  8
text2
100
AcDbPolyline
 90
        4
 70
     1
 43
0.0
 10
752.5
 20
161.0
 10
752.5
 20
66.0
 10
847.5
 20
66.0
 10
847.5
 20
161.0
  0
LWPOLYLINE
  5
74
330
1F
100
AcDbEntity
  8
text2
100
AcDbPolyline
 90
        4
 70
     1
 43
0.0
 10
902.5
 20
161.0
 10
902.5
 20
66.0
 10
997.5
 20
66.0
 10
997.5
 20
161.0
  0
LWPOLYLINE
  5
75
330
1F
100
AcDbEntity
  8
text2
100
AcDbPolyline
 90
        4
 70
     1
 43
0.0
 10
1052.5
 20
161.0
 10
1052.5
 20
66.0
 10
1147.5
 20
66.0
 10
1147.5
 20
161.0
  0
LWPOLYLINE
  5
76
330
1F
100
AcDbEntity
  8
text2
100
AcDbPolyline
 90
        4
 70
     1
 43
0.0
 10
1202.5
 20
161.0
 10
1202.5
 20
66.0
 10
1297.5
 20
66.0
 10
1297.5
 20
161.0
  0
LWPOLYLINE
  5
77
330
1F
100
AcDbEntity
  8
text2
100
AcDbPolyline
 90
        4
 70
     1
 43
0.0
 10
1352.5
 20
161.0
 10
1352.5
 20
66.0
 10
1447.5
 20
66.0
 10
1447.5
 20
161.0
  0
LWPOLYLINE
  5
78
330
1F
100
AcDbEntity
  8
text2
100
AcDbPolyline
 90
        4
 70
     1
 43
0.0
 10
1502.5
 20
161.0
 10
1502.5
 20
66.0
 10
1597.5
 20
66.0
 10
1597.5
 20
161.0
  0
LWPOLYLINE
  5
79
330
1F
100
AcDbEntity
  8
text2
100
AcDbPolyline
 90
        4
 70
     1
 43
0.0
 10
0.0
 20
0.0
 10
5000.0
 20
0.0
 10
5000.0
 20
2500.0
 10
0.0
 20
2500.0
  0
LWPOLYLINE
  5
7A
330
1F
100
AcDbEntity
  8
text2
100
AcDbPolyline
 90
       26
 70
     1
 43
0.0
 10
4934.0
 20
980.0
 10
4934.0
 20
902.6
 10
4933.3
 20
898.2
 10
4930.900000000001
 20
893.5
 10
4927.3
 20
889.9
 10
4922.6
 20
887.5
 10
4917.5
 20
886.7
 10
4912.400000000001
 20
887.5
 10
4907.7
 20
889.9
 10
4904.1
 20
893.5
 10
4901.7
 20
898.2
 10
4901.0
 20
902.6
 10
4901.0
 20
911.8000000000001
 10
4878.5
 20
947.0
 10
4869.2
 20
947.0
 10
4864.8
 20
947.7
 10
4860.1
 20
950.1
 10
4856.5
 20
953.7
 10
4854.1
 20
958.4
 10
4853.3
 20
963.5
 10
4854.1
 20
968.6
 10
4856.5
 20
973.3000000000001
 10
4860.1
 20
976.9
 10
4864.8
 20
979.3000000000001
 10
4869.2
 20
980.0
 10
4885.6
 20
980.0
  0
LWPOLYLINE
  5
7B
330
1F
100
AcDbEntity
  8
text2
100
AcDbPolyline
 90
       26
 70
     1
 43
0.0
 10
4885.6
 20
1120.0
 10
4869.2
 20
1120.0
 10
4864.8
 20
1120.7
 10
4860.1
 20
1123.1
 10
4856.5
 20
1126.7
 10
4854.1
 20
1131.4
 10
4853.3
 20
1136.5
 10
4854.1
 20
1141.6
 10
4856.5
 20
1146.3
 10
4860.1
 20
1149.9
 10
4864.8
 20
1152.3
 10
4869.2
 20
1153.0
 10
4878.5
 20
1153.0
 10
4901.0
 20
1188.2
 10
4901.0
 20
1197.4
 10
4901.7
 20
1201.8
 10
4904.1
 20
1206.5
 10
4907.7
 20
1210.1
 10
4912.400000000001
 20
1212.5
 10
4917.5
 20
1213.3
 10
4922.6
 20
1212.5
 10
4927.3
 20
1210.1
 10
4930.900000000001
 20
1206.5
 10
4933.3
 20
1201.8
 10
4934.0
 20
1197.4
 10
4934.0
 20
1120.0
  0
LWPOLYLINE
  5
7C
330
1F
100
AcDbEntity
  8
text2
100
AcDbPolyline
 90
        8
 70
     1
 43
0.0
 10
4934.0
 20
1079.0
 10
4934.0
 20
1021.0
 10
4865.2
 20
1021.0
 10
4835.2
 20
1033.5
 10
4826.0
 20
1033.5
 10
4826.0
 20
1066.5
 10
4835.2
 20
1066.5
 10
4865.2
 20
1079.0
  0
LWPOLYLINE
  5
7D
330
1F
100
AcDbEntity
  8
text2
100
AcDbPolyline
 90
       10
 70
     1
 43
0.0
 10
4858.679
 20
876.9
 10
4858.679
 20
881.187
 10
4862.966
 20
881.187
 10
4862.966
 20
902.613
 10
4858.679
 20
902.613
 10
4862.966
 20
906.9
 10
4867.25
 20
906.9
 10
4867.25
 20
881.187
 10
4871.537
 20
881.187
 10
4871.537
 20
876.9
  0
LWPOLYLINE
  5
7E
330
1F
100
AcDbEntity
  8
text2
100
AcDbPolyline
 90
       12
 70
     1
 43
0.0
 10
4763.574000000001
 20
731.143
 10
4763.574000000001
 20
761.143
 10
4780.716
 20
761.143
 10
4785.0
 20
756.856
 10
4785.0
 20
748.285
 10
4780.716
 20
744.001
 10
4774.287
 20
744.001
 10
4785.0
 20
733.2860000000001
 10
4785.0
 20
731.143
 10
4780.716
 20
731.143
 10
4767.858
 20
744.001
 10
4767.858
 20
731.143
  0
LWPOLYLINE
  5
7F
330
1F
100
AcDbEntity
  8
text2
100
AcDbPolyline
 90
        6
 70
     1
 43
0.0
 10
4767.858
 20
748.285
 10
4778.574000000001
 20
748.285
 10
4780.716
 20
750.4300000000001
 10
4780.716
 20
754.714
 10
4778.574000000001
 20
756.856
 10
4767.858
 20
756.856
  0
LWPOLYLINE
  5
80
330
1F
100
AcDbEntity
  8
text2
100
AcDbPolyline
 90
       10
 70
     1
 43
0.0
 10
4793.574000000001
 20
731.143
 10
4793.574000000001
 20
761.143
 10
4812.858
 20
761.143
 10
4812.858
 20
756.856
 10
4797.858
 20
756.856
 10
4797.858
 20
748.285
 10
4806.429
 20
748.285
 10
4806.429
 20
744.001
 10
4797.858
 20
744.001
 10
4797.858
 20
731.143
  0
LWPOLYLINE
  5
81
330
1F
100
AcDbEntity
  8
text2
100
AcDbPolyline
 90
        8
 70
     1
 43
0.0
 10
4853.574000000001
 20
735.4300000000001
 10
4853.574000000001
 20
756.856
 10
4857.858
 20
761.143
 10
4870.716
 20
761.143
 10
4875.0
 20
756.856
 10
4875.0
 20
735.4300000000001
 10
4870.716
 20
731.143
 10
4857.858
 20
731.143
  0
LWPOLYLINE
  5
82
330
1F
100
AcDbEntity
  8
text2
100
AcDbPolyline
 90
        8
 70
     1
 43
0.0
 10
4860.0
 20
735.4300000000001
 10
4868.574000000001
 20
735.4300000000001
 10
4870.716
 20
737.572
 10
4870.716
 20
754.714
 10
4868.574000000001
 20
756.856
 10
4860.0
 20
756.856
 10
4857.858
 20
754.714
 10
4857.858
 20
737.572
  0
LWPOLYLINE
  5
83
330
1F
100
AcDbEntity
  8
text2
100
AcDbPolyline
 90
       12
 70
     1
 43
0.0
 10
4883.574000000001
 20
735.4300000000001
 10
4883.574000000001
 20
761.143
 10
4887.858
 20
761.143
 10
4887.858
 20
737.572
 10
4890.0
 20
735.4300000000001
 10
4898.574000000001
 20
735.4300000000001
 10
4900.716
 20
737.572
 10
4900.716
 20
761.143
 10
4905.0
 20
761.143
 10
4905.0
 20
735.4300000000001
 10
4900.716
 20
731.143
 10
4887.858
 20
731.143
  0
LWPOLYLINE
  5
84
330
1F
100
AcDbEntity
  8
text2
100
AcDbPolyline
 90
        8
 70
     1
 43
0.0
 10
4922.145
 20
731.143
 10
4922.145
 20
756.856
 10
4913.574000000001
 20
756.856
 10
4913.574000000001
 20
761.143
 10
4935.0
 20
761.143
 10
4935.0
 20
756.856
 10
4926.429
 20
756.856
 10
4926.429
 20
731.143
  0
LWPOLYLINE
  5
85
330
1F
100
AcDbEntity
  8
text2
100
AcDbPolyline
 90
        8
 70
     1
 43
0.0
 10
4763.574000000001
 20
781.143
 10
4763.574000000001
 20
831.143
 10
4792.144
 20
831.143
 10
4799.284
 20
823.998
 10
4799.284
 20
809.713
 10
4792.144
 20
802.573
 10
4770.714
 20
802.573
 10
4770.714
 20
781.143
  0
LWPOLYLINE
  5
86
330
1F
100
AcDbEntity
  8
text2
100
AcDbPolyline
 90
        6
 70
     1
 43
0.0
 10
4770.714
 20
809.713
 10
4788.574000000001
 20
809.713
 10
4792.144
 20
813.288
 10
4792.144
 20
820.428
 10
4788.574000000001
 20
823.998
 10
4770.714
 20
823.998
  0
LWPOLYLINE
  5
87
330
1F
100
AcDbEntity
  8
text2
100
AcDbPolyline
 90
       15
 70
     1
 43
0.0
 10
4813.574000000001
 20
781.143
 10
4813.574000000001
 20
791.8580000000001
 10
4842.144
 20
813.288
 10
4842.144
 20
820.428
 10
4838.574000000001
 20
823.998
 10
4824.284
 20
823.998
 10
4820.714
 20
820.428
 10
4813.574000000001
 20
823.998
 10
4820.714
 20
831.143
 10
4842.144
 20
831.143
 10
4849.284
 20
823.998
 10
4849.284
 20
809.713
 10
4820.714
 20
788.288
 10
4849.284
 20
788.288
 10
4849.284
 20
781.143
  0
LWPOLYLINE
  5
88
330
1F
100
AcDbEntity
  8
text2
100
AcDbPolyline
 90
       12
 70
     1
 43
0.0
 10
65.0
 20
2133.5
 10
65.0
 20
2137.787
 10
69.287
 20
2137.787
 10
69.287
 20
2159.213
 10
65.0
 20
2159.213
 10
65.0
 20
2163.5
 10
77.858
 20
2163.5
 10
77.858
 20
2159.213
 10
73.571
 20
2159.213
 10
73.571
 20
2137.787
 10
77.858
 20
2137.787
 10
77.858
 20
2133.5
  0
LWPOLYLINE
  5
89
330
1F
100
AcDbEntity
  8
text2
100
AcDbPolyline
 90
       10
 70
     1
 43
0.0
 10
90.71600000000001
 20
2133.5
 10
90.71600000000001
 20
2163.5
 10
110.0
 20
2163.5
 10
110.0
 20
2159.213
 10
95.0
 20
2159.213
 10
95.0
 20
2150.642
 10
103.571
 20
2150.642
 10
103.571
 20
2146.358
 10
95.0
 20
2146.358
 10
95.0
 20
2133.5
  0
LWPOLYLINE
  5
8A
330
1F
100
AcDbEntity
  8
text2
100
AcDbPolyline
 90
       12
 70
     1
 43
0.0
 10
155.0
 20
2133.5
 10
155.0
 20
2137.787
 10
159.287
 20
2137.787
 10
159.287
 20
2159.213
 10
155.0
 20
2159.213
 10
155.0
 20
2163.5
 10
167.858
 20
2163.5
 10
167.858
 20
2159.213
 10
163.571
 20
2159.213
 10
163.571
 20
2137.787
 10
167.858
 20
2137.787
 10
167.858
 20
2133.5
  0
LWPOLYLINE
  5
8B
330
1F
100
AcDbEntity
  8
text2
100
AcDbPolyline
 90
       10
 70
     1
 43
0.0
 10
180.716
 20
2133.5
 10
180.716
 20
2163.5
 10
187.142
 20
2163.5
 10
197.858
 20
2139.929
 10
197.858
 20
2163.5
 10
202.142
 20
2163.5
 10
202.142
 20
2133.5
 10
195.716
 20
2133.5
 10
185.0
 20
2157.071
 10
185.0
 20
2133.5
  0
LWPOLYLINE
  5
8C
330
1F
100
AcDbEntity
  8
text2
100
AcDbPolyline
 90
       10
 70
     1
 43
0.0
 10
97.071
 20
2055.0
 10
97.071
 20
2059.287
 10
101.358
 20
2059.287
 10
101.358
 20
2080.713
 10
97.071
 20
2080.713
 10
101.358
 20
2085.0
 10
105.642
 20
2085.0
 10
105.642
 20
2059.287
 10
109.929
 20
2059.287
 10
109.929
 20
2055.0
  0
LWPOLYLINE
  5
8D
330
1F
100
AcDbEntity
  8
text2
100
AcDbPolyline
 90
       17
 70
     1
 43
0.0
 10
4281.08
 20
85.0
 10
4281.08
 20
81.429
 10
4277.505
 20
77.855
 10
4259.65
 20
77.855
 10
4259.65
 20
70.715
 10
4281.08
 20
70.715
 10
4288.22
 20
77.855
 10
4288.22
 20
113.57
 10
4281.08
 20
113.57
 10
4281.08
 20
110.0
 10
4277.505
 20
113.57
 10
4266.79
 20
113.57
 10
4259.65
 20
106.43
 10
4259.65
 20
92.145
 10
4266.79
 20
85.0
 10
4277.505
 20
85.0
 10
4281.08
 20
88.571
  0
LWPOLYLINE
  5
8E
330
1F
100
AcDbEntity
  8
text2
100
AcDbPolyline
 90
        8
 70
     1
 43
0.0
 10
4277.505
 20
95.715
 10
4277.505
 20
102.855
 10
4273.935
 20
106.43
 10
4270.365
 20
106.43
 10
4266.79
 20
102.855
 10
4266.79
 20
95.715
 10
4270.365
 20
92.145
 10
4273.935
 20
92.145
  0
LWPOLYLINE
  5
8F
330
1F
100
AcDbEntity
  8
text2
100
AcDbPolyline
 90
        8
 70
     1
 43
0.0
 10
4320.365
 20
85.0
 10
4320.365
 20
127.855
 10
4306.08
 20
127.855
 10
4306.08
 20
135.0
 10
4341.79
 20
135.0
 10
4341.79
 20
127.855
 10
4327.505
 20
127.855
 10
4327.505
 20
85.0
  0
LWPOLYLINE
  5
90
330
1F
100
AcDbEntity
  8
text2
100
AcDbPolyline
 90
       24
 70
     1
 43
0.0
 10
4356.08
 20
92.145
 10
4363.22
 20
95.715
 10
4366.79
 20
92.145
 10
4381.08
 20
92.145
 10
4384.650000000001
 20
95.715
 10
4384.650000000001
 20
102.855
 10
4381.08
 20
106.43
 10
4363.22
 20
106.43
 10
4356.08
 20
113.57
 10
4356.08
 20
127.855
 10
4363.22
 20
135.0
 10
4384.650000000001
 20
135.0
 10
4391.79
 20
127.855
 10
4384.650000000001
 20
124.285
 10
4381.08
 20
127.855
 10
4366.79
 20
127.855
 10
4363.22
 20
124.285
 10
4363.22
 20
117.145
 10
4366.79
 20
113.57
 10
4384.650000000001
 20
113.57
 10
4391.79
 20
106.43
 10
4391.79
 20
92.145
 10
4384.650000000001
 20
85.0
 10
4363.22
 20
85.0
  0
LWPOLYLINE
  5
91
330
1F
100
AcDbEntity
  8
text2
100
AcDbPolyline
 90
       20
 70
     1
 43
0.0
 10
4406.08
 20
92.145
 10
4406.08
 20
127.855
 10
4413.22
 20
135.0
 10
4434.650000000001
 20
135.0
 10
4441.79
 20
127.855
 10
4441.79
 20
120.715
 10
4434.650000000001
 20
120.715
 10
4434.650000000001
 20
124.285
 10
4431.08
 20
127.855
 10
4416.79
 20
127.855
 10
4413.22
 20
124.285
 10
4413.22
 20
95.715
 10
4416.79
 20
92.145
 10
4431.08
 20
92.145
 10
4434.650000000001
 20
95.715
 10
4434.650000000001
 20
99.285
 10
4441.79
 20
99.285
 10
4441.79
 20
92.145
 10
4434.650000000001
 20
85.0
 10
4413.22
 20
85.0
  0
LWPOLYLINE
  5
92
330
1F
100
AcDbEntity
  8
text2
100
AcDbPolyline
 90
        8
 70
     1
 43
0.0
 10
4459.650000000001
 20
92.145
 10
4459.650000000001
 20
127.855
 10
4466.79
 20
135.0
 10
4481.08
 20
135.0
 10
4488.22
 20
127.855
 10
4488.22
 20
92.145
 10
4481.08
 20
85.0
 10
4466.79
 20
85.0
  0
LWPOLYLINE
  5
93
330
1F
100
AcDbEntity
  8
text2
100
AcDbPolyline
 90
        8
 70
     1
 43
0.0
 10
4466.79
 20
95.715
 10
4466.79
 20
124.285
 10
4470.365
 20
127.855
 10
4477.505
 20
127.855
 10
4481.08
 20
124.285
 10
4481.08
 20
95.715
 10
4477.505
 20
92.145
 10
4470.365
 20
92.145
  0
LWPOLYLINE
  5
94
330
1F
100
AcDbEntity
  8
text2
100
AcDbPolyline
 90
        8
 70
     1
 43
0.0
 10
4509.650000000001
 20
92.145
 10
4509.650000000001
 20
127.855
 10
4516.79
 20
135.0
 10
4531.08
 20
135.0
 10
4538.22
 20
127.855
 10
4538.22
 20
92.145
 10
4531.08
 20
85.0
 10
4516.79
 20
85.0
  0
LWPOLYLINE
  5
95
330
1F
100
AcDbEntity
  8
text2
100
AcDbPolyline
 90
        8
 70
     1
 43
0.0
 10
4516.79
 20
95.715
 10
4516.79
 20
124.285
 10
4520.365
 20
127.855
 10
4527.505
 20
127.855
 10
4531.08
 20
124.285
 10
4531.08
 20
95.715
 10
4527.505
 20
92.145
 10
4520.365
 20
92.145
  0
LWPOLYLINE
  5
96
330
1F
100
AcDbEntity
  8
text2
100
AcDbPolyline
 90
       15
 70
     1
 43
0.0
 10
4556.08
 20
85.0
 10
4556.08
 20
95.715
 10
4584.650000000001
 20
117.145
 10
4584.650000000001
 20
124.285
 10
4581.08
 20
127.855
 10
4566.79
 20
127.855
 10
4563.22
 20
124.285
 10
4556.08
 20
127.855
 10
4563.22
 20
135.0
 10
4584.650000000001
 20
135.0
 10
4591.79
 20
127.855
 10
4591.79
 20
113.57
 10
4563.22
 20
92.145
 10
4591.79
 20
92.145
 10
4591.79
 20
85.0
  0
LWPOLYLINE
  5
97
330
1F
100
AcDbEntity
  8
text2
100
AcDbPolyline
 90
        8
 70
     1
 43
0.0
 10
4609.650000000001
 20
92.145
 10
4609.650000000001
 20
127.855
 10
4616.79
 20
135.0
 10
4631.08
 20
135.0
 10
4638.22
 20
127.855
 10
4638.22
 20
92.145
 10
4631.08
 20
85.0
 10
4616.79
 20
85.0
  0
LWPOLYLINE
  5
98
330
1F
100
AcDbEntity
  8
text2
100
AcDbPolyline
 90
        8
 70
     1
 43
0.0
 10
4616.79
 20
95.715
 10
4616.79
 20
124.285
 10
4620.365
 20
127.855
 10
4627.505
 20
127.855
 10
4631.08
 20
124.285
 10
4631.08
 20
95.715
 10
4627.505
 20
92.145
 10
4620.365
 20
92.145
  0
LWPOLYLINE
  5
99
330
1F
100
AcDbEntity
  8
text2
100
AcDbPolyline
 90
        8
 70
     1
 43
0.0
 10
2311.574
 20
115.0
 10
2311.574
 20
165.0
 10
2340.144
 20
165.0
 10
2347.284
 20
157.855
 10
2347.284
 20
143.57
 10
2340.144
 20
136.43
 10
2318.714
 20
136.43
 10
2318.714
 20
115.0
  0
LWPOLYLINE
  5
9A
330
1F
100
AcDbEntity
  8
text2
100
AcDbPolyline
 90
        6
 70
     1
 43
0.0
 10
2318.714
 20
143.57
 10
2336.574
 20
143.57
 10
2340.144
 20
147.145
 10
2340.144
 20
154.285
 10
2336.574
 20
157.855
 10
2318.714
 20
157.855
  0
LWPOLYLINE
  5
9B
330
1F
100
AcDbEntity
  8
text2
100
AcDbPolyline
 90
       25
 70
     1
 43
0.0
 10
2361.574
 20
122.145
 10
2368.714
 20
125.715
 10
2372.284
 20
122.145
 10
2386.574
 20
122.145
 10
2390.144
 20
125.715
 10
2390.144
 20
129.285
 10
2382.999
 20
136.43
 10
2375.859
 20
136.43
 10
2375.859
 20
143.57
 10
2382.999
 20
143.57
 10
2390.144
 20
150.715
 10
2390.144
 20
154.285
 10
2386.574
 20
157.855
 10
2372.284
 20
157.855
 10
2368.714
 20
154.285
 10
2361.574
 20
157.855
 10
2368.714
 20
165.0
 10
2390.144
 20
165.0
 10
2397.284
 20
157.855
 10
2397.284
 20
147.145
 10
2390.144
 20
140.0
 10
2397.284
 20
132.855
 10
2397.284
 20
122.145
 10
2390.144
 20
115.0
 10
2368.714
 20
115.0
  0
LWPOLYLINE
  5
9C
330
1F
100
AcDbEntity
  8
text2
100
AcDbPolyline
 90
        6
 70
     1
 43
0.0
 10
2311.574
 20
65.0
 10
2311.574
 20
95.0
 10
2315.858
 20
95.0
 10
2315.858
 20
69.287
 10
2333.0
 20
69.287
 10
2333.0
 20
65.0
  0
LWPOLYLINE
  5
9D
330
1F
100
AcDbEntity
  8
text2
100
AcDbPolyline
 90
        8
 70
     1
 43
0.0
 10
2341.574
 20
69.287
 10
2341.574
 20
90.71300000000001
 10
2345.858
 20
95.0
 10
2358.716
 20
95.0
 10
2363.0
 20
90.71300000000001
 10
2363.0
 20
69.287
 10
2358.716
 20
65.0
 10
2345.858
 20
65.0
  0
LWPOLYLINE
  5
9E
330
1F
100
AcDbEntity
  8
text2
100
AcDbPolyline
 90
        8
 70
     1
 43
0.0
 10
2348.0
 20
69.287
 10
2356.574
 20
69.287
 10
2358.716
 20
71.429
 10
2358.716
 20
88.571
 10
2356.574
 20
90.71300000000001
 10
2348.0
 20
90.71300000000001
 10
2345.858
 20
88.571
 10
2345.858
 20
71.429
  0
LWPOLYLINE
  5
9F
330
1F
100
AcDbEntity
  8
text2
100
AcDbPolyline
 90
       12
 70
     1
 43
0.0
 10
2405.858
 20
65.0
 10
2405.858
 20
69.287
 10
2410.145
 20
69.287
 10
2410.145
 20
90.71300000000001
 10
2405.858
 20
90.71300000000001
 10
2405.858
 20
95.0
 10
2418.716
 20
95.0
 10
2418.716
 20
90.71300000000001
 10
2414.429
 20
90.71300000000001
 10
2414.429
 20
69.287
 10
2418.716
 20
69.287
 10
2418.716
 20
65.0
  0
LWPOLYLINE
  5
A0
330
1F
100
AcDbEntity
  8
text2
100
AcDbPolyline
 90
       10
 70
     1
 43
0.0
 10
2431.574
 20
65.0
 10
2431.574
 20
95.0
 10
2438.0
 20
95.0
 10
2448.716
 20
71.429
 10
2448.716
 20
95.0
 10
2453.0
 20
95.0
 10
2453.0
 20
65.0
 10
2446.574
 20
65.0
 10
2435.858
 20
88.571
 10
2435.858
 20
65.0
  0
LWPOLYLINE
  5
A1
330
1F
100
AcDbEntity
  8
text2
100
AcDbPolyline
 90
        8
 70
     1
 43
0.0
 10
1138.575
 20
2357.927
 10
1138.575
 20
2407.927
 10
1167.145
 20
2407.927
 10
1174.285
 20
2400.782
 10
1174.285
 20
2386.497
 10
1167.145
 20
2379.357
 10
1145.715
 20
2379.357
 10
1145.715
 20
2357.927
  0
LWPOLYLINE
  5
A2
330
1F
100
AcDbEntity
  8
text2
100
AcDbPolyline
 90
        6
 70
     1
 43
0.0
 10
1145.715
 20
2386.497
 10
1163.575
 20
2386.497
 10
1167.145
 20
2390.072
 10
1167.145
 20
2397.212
 10
1163.575
 20
2400.782
 10
1145.715
 20
2400.782
  0
LWPOLYLINE
  5
A3
330
1F
100
AcDbEntity
  8
text2
100
AcDbPolyline
 90
       10
 70
     1
 43
0.0
 10
1195.715
 20
2357.927
 10
1195.715
 20
2365.072
 10
1202.86
 20
2365.072
 10
1202.86
 20
2400.782
 10
1195.715
 20
2400.782
 10
1202.86
 20
2407.927
 10
1210.0
 20
2407.927
 10
1210.0
 20
2365.072
 10
1217.145
 20
2365.072
 10
1217.145
 20
2357.927
  0
LWPOLYLINE
  5
A4
330
1F
100
AcDbEntity
  8
text2
100
AcDbPolyline
 90
        8
 70
     1
 43
0.0
 10
1640.0
 20
88.5
 10
1640.0
 20
138.5
 10
1668.57
 20
138.5
 10
1675.71
 20
131.355
 10
1675.71
 20
117.07
 10
1668.57
 20
109.93
 10
1647.14
 20
109.93
 10
1647.14
 20
88.5
  0
LWPOLYLINE
  5
A5
330
1F
100
AcDbEntity
  8
text2
100
AcDbPolyline
 90
        6
 70
     1
 43
0.0
 10
1647.14
 20
117.07
 10
1665.0
 20
117.07
 10
1668.57
 20
120.645
 10
1668.57
 20
127.785
 10
1665.0
 20
131.355
 10
1647.14
 20
131.355
  0
LWPOLYLINE
  5
A6
330
1F
100
AcDbEntity
  8
text2
100
AcDbPolyline
 90
       11
 70
     1
 43
0.0
 10
1711.425
 20
88.5
 10
1711.425
 20
106.355
 10
1690.0
 20
106.355
 10
1690.0
 20
113.5
 10
1711.425
 20
138.5
 10
1718.57
 20
138.5
 10
1718.57
 20
113.5
 10
1725.71
 20
113.5
 10
1725.71
 20
106.355
 10
1718.57
 20
106.355
 10
1718.57
 20
88.5
  0
LWPOLYLINE
  5
A7
330
1F
100
AcDbEntity
  8
text2
100
AcDbPolyline
 90
        3
 70
     1
 43
0.0
 10
1711.425
 20
113.5
 10
1697.14
 20
113.5
 10
1711.425
 20
127.785
  0
LWPOLYLINE
  5
A8
330
1F
100
AcDbEntity
  8
text2
100
AcDbPolyline
 90
       10
 70
     1
 43
0.0
 10
3785.713
 20
2371.5
 10
3785.713
 20
2375.787
 10
3790.0
 20
2375.787
 10
3790.0
 20
2397.213
 10
3785.713
 20
2397.213
 10
3790.0
 20
2401.5
 10
3794.284
 20
2401.5
 10
3794.284
 20
2375.787
 10
3798.571
 20
2375.787
 10
3798.571
 20
2371.5
  0
LWPOLYLINE
  5
A9
330
1F
100
AcDbEntity
  8
text2
100
AcDbPolyline
 90
       10
 70
     1
 43
0.0
 10
101.429
 20
96.35600000000001
 10
101.429
 20
100.643
 10
105.716
 20
100.643
 10
105.716
 20
122.069
 10
101.429
 20
122.069
 10
105.716
 20
126.356
 10
110.0
 20
126.356
 10
110.0
 20
100.643
 10
114.287
 20
100.643
 10
114.287
 20
96.35600000000001
  0
LWPOLYLINE
  5
AA
330
1F
100
AcDbEntity
  8
text2
100
AcDbPolyline
 90
       10
 70
     1
 43
0.0
 10
2550.471
 20
190.4
 10
2550.471
 20
194.687
 10
2554.758
 20
194.687
 10
2554.758
 20
216.113
 10
2550.471
 20
216.113
 10
2554.758
 20
220.4
 10
2559.042
 20
220.4
 10
2559.042
 20
194.687
 10
2563.329
 20
194.687
 10
2563.329
 20
190.4
  0
LWPOLYLINE
  5
AB
330
1F
100
AcDbEntity
  8
text2
100
AcDbPolyline
 90
        8
 70
     1
 43
0.0
 10
65.0
 20
2183.5
 10
65.0
 20
2233.5
 10
93.57000000000001
 20
2233.5
 10
100.71
 20
2226.355
 10
100.71
 20
2212.07
 10
93.57000000000001
 20
2204.93
 10
72.14
 20
2204.93
 10
72.14
 20
2183.5
  0
LWPOLYLINE
  5
AC
330
1F
100
AcDbEntity
  8
text2
100
AcDbPolyline
 90
        6
 70
     1
 43
0.0
 10
72.14
 20
2212.07
 10
90.0
 20
2212.07
 10
93.57000000000001
 20
2215.645
 10
93.57000000000001
 20
2222.785
 10
90.0
 20
2226.355
 10
72.14
 20
2226.355
  0
LWPOLYLINE
  5
AD
330
1F
100
AcDbEntity
  8
text2
100
AcDbPolyline
 90
       18
 70
     1
 43
0.0
 10
115.0
 20
2190.645
 10
122.14
 20
2194.215
 10
125.71
 20
2190.645
 10
140.0
 20
2190.645
 10
143.57
 20
2194.215
 10
143.57
 20
2204.93
 10
140.0
 20
2208.5
 10
115.0
 20
2208.5
 10
115.0
 20
2233.5
 10
150.71
 20
2233.5
 10
150.71
 20
2226.355
 10
122.14
 20
2226.355
 10
122.14
 20
2215.645
 10
143.57
 20
2215.645
 10
150.71
 20
2208.5
 10
150.71
 20
2190.645
 10
143.57
 20
2183.5
 10
122.14
 20
2183.5
  0
LWPOLYLINE
  5
AE
330
1F
100
AcDbEntity
  8
text2
100
AcDbPolyline
 90
        4
 70
     1
 43
0.0
 10
66.0
 20
1187.5
 10
66.0
 20
1262.5
 10
141.0
 20
1262.5
 10
141.0
 20
1187.5
  0
LWPOLYLINE
  5
AF
330
1F
100
AcDbEntity
  8
text2
100
AcDbPolyline
 90
        4
 70
     1
 43
0.0
 10
66.0
 20
1312.5
 10
66.0
 20
1387.5
 10
141.0
 20
1387.5
 10
141.0
 20
1312.5
  0
LWPOLYLINE
  5
B0
330
1F
100
AcDbEntity
  8
text2
100
AcDbPolyline
 90
        4
 70
     1
 43
0.0
 10
66.0
 20
1437.5
 10
66.0
 20
1512.5
 10
141.0
 20
1512.5
 10
141.0
 20
1437.5
  0
LWPOLYLINE
  5
B1
330
1F
100
AcDbEntity
  8
text2
100
AcDbPolyline
 90
        4
 70
     1
 43
0.0
 10
66.0
 20
1562.5
 10
66.0
 20
1637.5
 10
141.0
 20
1637.5
 10
141.0
 20
1562.5
  0
LWPOLYLINE
  5
B2
330
1F
100
AcDbEntity
  8
text2
100
AcDbPolyline
 90
        4
 70
     1
 43
0.0
 10
66.0
 20
1687.5
 10
66.0
 20
1762.5
 10
141.0
 20
1762.5
 10
141.0
 20
1687.5
  0
LWPOLYLINE
  5
B3
330
1F
100
AcDbEntity
  8
text2
100
AcDbPolyline
 90
        4
 70
     1
 43
0.0
 10
66.0
 20
1812.5
 10
66.0
 20
1887.5
 10
141.0
 20
1887.5
 10
141.0
 20
1812.5
  0
LWPOLYLINE
  5
B4
330
1F
100
AcDbEntity
  8
text2
100
AcDbPolyline
 90
        4
 70
     1
 43
0.0
 10
66.0
 20
1937.5
 10
66.0
 20
2012.5
 10
141.0
 20
2012.5
 10
141.0
 20
1937.5
  0
LWPOLYLINE
  5
B5
330
1F
100
AcDbEntity
  8
text2
100
AcDbPolyline
 90
        4
 70
     1
 43
0.0
 10
2452.5
 20
2277.0
 10
2452.5
 20
2434.0
 10
2547.5
 20
2434.0
 10
2547.5
 20
2277.0
  0
LWPOLYLINE
  5
B6
330
1F
100
AcDbEntity
  8
text2
100
AcDbPolyline
 90
        4
 70
     1
 43
0.0
 10
602.5
 20
66.0
 10
602.5
 20
223.0
 10
697.5
 20
223.0
 10
697.5
 20
66.0
  0
LWPOLYLINE
  5
B7
330
1F
100
AcDbEntity
  8
text2
100
AcDbPolyline
 90
        8
 70
     1
 43
0.0
 10
2683.5
 20
211.2
 10
2683.5
 20
221.4
 10
2716.5
 20
221.4
 10
2716.5
 20
211.2
 10
2729.0
 20
181.2
 10
2729.0
 20
66.0
 10
2671.0
 20
66.0
 10
2671.0
 20
181.2
  0
LWPOLYLINE
  5
B8
330
1F
100
AcDbEntity
  8
text2
100
AcDbPolyline
 90
       27
 70
     1
 43
0.0
 10
2803.0
 20
177.2
 10
2803.0
 20
167.9
 10
2878.2
 20
167.9
 10
2878.2
 20
99.0
 10
2887.4
 20
99.0
 10
2891.8
 20
98.3
 10
2896.5
 20
95.9
 10
2900.1
 20
92.3
 10
2902.5
 20
87.60000000000001
 10
2903.3
 20
82.5
 10
2902.5
 20
77.4
 10
2900.1
 20
72.7
 10
2896.5
 20
69.10000000000001
 10
2891.8
 20
66.7
 10
2887.4
 20
66.0
 10
2770.0
 20
66.0
 10
2770.0
 20
177.2
 10
2770.7
 20
181.6
 10
2773.1
 20
186.3
 10
2776.7
 20
189.9
 10
2781.4
 20
192.3
 10
2786.5
 20
193.1
 10
2791.6
 20
192.3
 10
2796.3
 20
189.9
 10
2799.9
 20
186.3
 10
2802.3
 20
181.6
 10
2803.0
 20
177.2
  0
LWPOLYLINE
  5
B9
330
1F
100
AcDbEntity
  8
text2
100
AcDbPolyline
 90
       27
 70
     1
 43
0.0
 10
2630.0
 20
177.2
 10
2630.0
 20
66.0
 10
2512.6
 20
66.0
 10
2508.2
 20
66.7
 10
2503.5
 20
69.10000000000001
 10
2499.9
 20
72.7
 10
2497.5
 20
77.4
 10
2496.7
 20
82.5
 10
2497.5
 20
87.60000000000001
 10
2499.9
 20
92.3
 10
2503.5
 20
95.9
 10
2508.2
 20
98.3
 10
2512.6
 20
99.0
 10
2521.8
 20
99.0
 10
2521.8
 20
167.9
 10
2597.0
 20
167.9
 10
2597.0
 20
177.2
 10
2597.7
 20
181.6
 10
2600.1
 20
186.3
 10
2603.7
 20
189.9
 10
2608.4
 20
192.3
 10
2613.5
 20
193.1
 10
2618.6
 20
192.3
 10
2623.3
 20
189.9
 10
2626.9
 20
186.3
 10
2629.3
 20
181.6
 10
2630.0
 20
177.2
  0
LWPOLYLINE
  5
BA
330
1F
100
AcDbEntity
  8
text2
100
AcDbPolyline
 90
      278
 70
     1
 43
0.0
 10
4778.89
 20
127.4
 10
4780.49
 20
128.6
 10
4782.09
 20
130.2
 10
4783.690000000001
 20
131.4
 10
4784.89
 20
132.6
 10
4785.690000000001
 20
134.2
 10
4786.49
 20
135.4
 10
4788.09
 20
138.6
 10
4788.49
 20
139.8
 10
4788.49
 20
141.4
 10
4788.89
 20
143.4
 10
4788.89
 20
145.0
 10
4788.49
 20
147.8
 10
4787.29
 20
151.4
 10
4785.29
 20
154.6
 10
4782.49
 20
157.8
 10
4779.29
 20
160.6
 10
4775.29
 20
163.0
 10
4774.49
 20
163.8
 10
4772.49
 20
161.4
 10
4770.09
 20
157.8
 10
4767.690000000001
 20
153.8
 10
4765.690000000001
 20
149.8
 10
4764.09
 20
145.8
 10
4762.89
 20
141.8
 10
4762.09
 20
137.8
 10
4761.690000000001
 20
133.8
 10
4762.09
 20
130.2
 10
4762.49
 20
127.0
 10
4763.690000000001
 20
123.8
 10
4764.09
 20
123.4
 10
4764.89
 20
123.4
 10
4770.49
 20
124.2
 10
4773.29
 20
125.0
 10
4775.690000000001
 20
125.8
 10
4772.89
 20
124.6
 10
4769.690000000001
 20
123.8
 10
4766.49
 20
122.6
 10
4764.49
 20
122.2
 10
4764.89
 20
121.4
 10
4767.29
 20
119.0
 10
4768.89
 20
117.8
 10
4770.49
 20
117.0
 10
4774.49
 20
115.4
 10
4778.49
 20
114.6
 10
4776.09
 20
114.6
 10
4773.29
 20
115.0
 10
4768.49
 20
116.6
 10
4766.09
 20
117.8
 10
4763.690000000001
 20
118.6
 10
4761.690000000001
 20
120.2
 10
4760.09
 20
121.4
 10
4759.29
 20
121.0
 10
4747.29
 20
119.8
 10
4739.29
 20
119.8
 10
4735.29
 20
120.2
 10
4730.89
 20
120.6
 10
4724.49
 20
121.8
 10
4717.29
 20
123.8
 10
4710.49
 20
126.2
 10
4704.09
 20
128.6
 10
4698.49
 20
131.8
 10
4693.29
 20
135.4
 10
4688.49
 20
139.0
 10
4684.89
 20
143.0
 10
4681.690000000001
 20
147.4
 10
4679.690000000001
 20
151.8
 10
4678.09
 20
156.2
 10
4677.690000000001
 20
160.6
 10
4678.09
 20
164.6
 10
4678.89
 20
167.0
 10
4679.690000000001
 20
169.0
 10
4680.89
 20
171.4
 10
4682.49
 20
173.4
 10
4686.49
 20
177.4
 10
4688.89
 20
179.0
 10
4691.29
 20
181.0
 10
4694.09
 20
182.6
 10
4699.690000000001
 20
185.0
 10
4702.89
 20
186.2
 10
4698.09
 20
183.8
 10
4696.49
 20
182.6
 10
4694.49
 20
181.4
 10
4692.89
 20
180.2
 10
4689.29
 20
175.4
 10
4688.49
 20
173.8
 10
4687.690000000001
 20
171.8
 10
4686.89
 20
167.8
 10
4686.49
 20
164.2
 10
4686.89
 20
159.8
 10
4688.09
 20
155.0
 10
4690.49
 20
151.0
 10
4693.690000000001
 20
146.6
 10
4697.29
 20
142.6
 10
4702.09
 20
139.0
 10
4707.29
 20
135.4
 10
4712.89
 20
132.2
 10
4719.29
 20
129.4
 10
4726.09
 20
127.0
 10
4733.29
 20
125.4
 10
4739.690000000001
 20
124.2
 10
4742.89
 20
123.8
 10
4746.49
 20
123.4
 10
4749.690000000001
 20
123.0
 10
4758.09
 20
123.0
 10
4757.29
 20
123.4
 10
4753.29
 20
127.4
 10
4751.690000000001
 20
129.8
 10
4748.89
 20
133.4
 10
4746.49
 20
138.2
 10
4746.09
 20
139.4
 10
4745.690000000001
 20
139.8
 10
4744.89
 20
141.0
 10
4743.690000000001
 20
142.2
 10
4742.89
 20
143.4
 10
4740.49
 20
145.0
 10
4739.29
 20
146.2
 10
4738.09
 20
146.6
 10
4735.690000000001
 20
148.2
 10
4734.49
 20
148.6
 10
4732.89
 20
149.0
 10
4731.29
 20
149.0
 10
4729.690000000001
 20
149.4
 10
4728.49
 20
149.4
 10
4726.89
 20
149.8
 10
4725.29
 20
149.4
 10
4723.690000000001
 20
149.4
 10
4722.09
 20
149.0
 10
4720.89
 20
148.6
 10
4717.690000000001
 20
147.8
 10
4716.49
 20
147.0
 10
4714.89
 20
146.2
 10
4713.29
 20
145.0
 10
4712.09
 20
144.2
 10
4714.89
 20
147.0
 10
4716.89
 20
148.2
 10
4718.49
 20
149.0
 10
4720.49
 20
150.2
 10
4722.09
 20
151.0
 10
4724.09
 20
151.8
 10
4725.690000000001
 20
152.2
 10
4727.690000000001
 20
153.0
 10
4729.29
 20
153.0
 10
4731.29
 20
153.4
 10
4733.29
 20
153.4
 10
4734.89
 20
153.0
 10
4736.89
 20
153.0
 10
4738.49
 20
152.2
 10
4740.49
 20
151.8
 10
4742.89
 20
150.6
 10
4742.49
 20
153.8
 10
4742.49
 20
159.4
 10
4742.89
 20
164.6
 10
4744.09
 20
169.8
 10
4744.49
 20
170.6
 10
4742.49
 20
170.6
 10
4736.89
 20
170.2
 10
4734.09
 20
169.8
 10
4731.29
 20
169.8
 10
4725.690000000001
 20
169.0
 10
4723.29
 20
168.6
 10
4720.49
 20
167.8
 10
4718.09
 20
167.4
 10
4716.09
 20
166.6
 10
4713.690000000001
 20
165.8
 10
4711.29
 20
164.6
 10
4709.29
 20
163.8
 10
4711.690000000001
 20
165.4
 10
4714.49
 20
166.6
 10
4717.29
 20
168.2
 10
4720.09
 20
169.4
 10
4723.29
 20
170.2
 10
4726.49
 20
171.4
 10
4729.690000000001
 20
172.2
 10
4733.29
 20
173.0
 10
4736.49
 20
173.8
 10
4743.690000000001
 20
174.6
 10
4743.690000000001
 20
175.8
 10
4742.89
 20
177.4
 10
4742.09
 20
178.6
 10
4741.29
 20
180.2
 10
4739.690000000001
 20
182.6
 10
4736.09
 20
186.2
 10
4733.690000000001
 20
187.8
 10
4732.09
 20
188.6
 10
4730.89
 20
189.0
 10
4729.29
 20
189.8
 10
4728.09
 20
190.2
 10
4726.49
 20
190.6
 10
4724.89
 20
190.6
 10
4723.29
 20
191.0
 10
4721.690000000001
 20
191.0
 10
4720.09
 20
190.6
 10
4718.09
 20
190.6
 10
4716.49
 20
190.2
 10
4716.09
 20
190.2
 10
4718.49
 20
191.0
 10
4722.49
 20
191.8
 10
4730.49
 20
191.8
 10
4734.49
 20
191.0
 10
4736.09
 20
190.6
 10
4737.690000000001
 20
189.8
 10
4739.690000000001
 20
189.0
 10
4741.29
 20
187.8
 10
4742.49
 20
187.0
 10
4746.89
 20
182.6
 10
4747.690000000001
 20
181.0
 10
4748.49
 20
180.2
 10
4750.89
 20
183.8
 10
4754.09
 20
188.2
 10
4757.690000000001
 20
191.4
 10
4759.690000000001
 20
193.0
 10
4762.09
 20
194.6
 10
4766.89
 20
197.0
 10
4774.09
 20
199.4
 10
4776.49
 20
199.8
 10
4784.09
 20
199.8
 10
4786.89
 20
199.4
 10
4784.49
 20
199.4
 10
4782.09
 20
199.0
 10
4780.09
 20
199.0
 10
4778.09
 20
198.2
 10
4776.09
 20
197.8
 10
4772.09
 20
196.2
 10
4770.49
 20
195.4
 10
4768.89
 20
194.2
 10
4767.690000000001
 20
193.4
 10
4766.09
 20
192.2
 10
4762.49
 20
188.6
 10
4760.09
 20
185.4
 10
4756.09
 20
176.6
 10
4755.690000000001
 20
174.6
 10
4761.29
 20
174.2
 10
4767.29
 20
173.0
 10
4772.49
 20
171.4
 10
4774.09
 20
171.0
 10
4776.49
 20
172.6
 10
4779.29
 20
174.2
 10
4781.29
 20
175.4
 10
4783.690000000001
 20
176.2
 10
4786.09
 20
177.4
 10
4788.49
 20
178.2
 10
4790.89
 20
178.6
 10
4793.690000000001
 20
179.4
 10
4798.49
 20
180.2
 10
4809.690000000001
 20
180.2
 10
4811.690000000001
 20
179.8
 10
4806.49
 20
179.8
 10
4804.49
 20
179.4
 10
4802.49
 20
179.4
 10
4800.89
 20
179.0
 10
4798.89
 20
178.2
 10
4796.89
 20
177.8
 10
4794.89
 20
177.0
 10
4792.89
 20
176.6
 10
4791.29
 20
175.8
 10
4789.29
 20
174.6
 10
4787.29
 20
173.8
 10
4785.29
 20
172.6
 10
4782.89
 20
171.0
 10
4779.690000000001
 20
168.6
 10
4782.09
 20
167.4
 10
4785.690000000001
 20
165.0
 10
4789.29
 20
162.2
 10
4791.690000000001
 20
159.0
 10
4793.690000000001
 20
155.8
 10
4794.89
 20
152.2
 10
4795.29
 20
149.0
 10
4795.29
 20
147.0
 10
4794.89
 20
145.0
 10
4793.29
 20
141.0
 10
4792.09
 20
139.4
 10
4788.89
 20
135.4
 10
4787.29
 20
133.8
 10
4785.29
 20
132.2
 10
4783.29
 20
130.2
 10
4781.29
 20
129.0
 10
4778.89
 20
127.4
  0
LWPOLYLINE
  5
BB
330
1F
100
AcDbEntity
  8
text2
100
AcDbPolyline
 90
       74
 70
     1
 43
0.0
 10
4846.09
 20
155.0
 10
4846.49
 20
151.8
 10
4846.49
 20
146.2
 10
4844.49
 20
139.8
 10
4841.29
 20
133.8
 10
4836.89
 20
128.2
 10
4831.29
 20
123.0
 10
4824.49
 20
117.8
 10
4816.49
 20
113.8
 10
4807.690000000001
 20
109.8
 10
4798.09
 20
106.6
 10
4787.690000000001
 20
104.2
 10
4776.89
 20
102.6
 10
4765.29
 20
101.4
 10
4755.29
 20
101.4
 10
4748.89
 20
101.8
 10
4742.49
 20
102.2
 10
4736.09
 20
102.6
 10
4730.09
 20
103.8
 10
4724.09
 20
105.0
 10
4718.09
 20
106.2
 10
4712.49
 20
107.8
 10
4707.29
 20
109.4
 10
4702.09
 20
111.4
 10
4697.29
 20
113.4
 10
4692.49
 20
115.8
 10
4688.49
 20
117.8
 10
4692.49
 20
116.2
 10
4696.09
 20
114.6
 10
4700.09
 20
113.0
 10
4704.49
 20
111.4
 10
4708.49
 20
110.2
 10
4712.89
 20
109.4
 10
4717.690000000001
 20
108.2
 10
4722.09
 20
107.4
 10
4726.89
 20
107.0
 10
4732.09
 20
106.6
 10
4737.29
 20
106.2
 10
4752.49
 20
106.2
 10
4764.09
 20
107.4
 10
4774.89
 20
109.0
 10
4785.29
 20
111.4
 10
4794.89
 20
114.6
 10
4803.690000000001
 20
118.6
 10
4811.690000000001
 20
122.6
 10
4818.49
 20
127.4
 10
4824.09
 20
133.0
 10
4828.49
 20
138.6
 10
4831.690000000001
 20
144.6
 10
4833.690000000001
 20
151.0
 10
4834.09
 20
156.2
 10
4833.690000000001
 20
159.4
 10
4833.29
 20
162.2
 10
4832.89
 20
165.0
 10
4832.09
 20
167.8
 10
4830.89
 20
170.6
 10
4829.29
 20
173.4
 10
4827.690000000001
 20
175.8
 10
4825.690000000001
 20
178.2
 10
4823.690000000001
 20
180.6
 10
4820.89
 20
183.0
 10
4818.09
 20
185.0
 10
4814.89
 20
187.4
 10
4818.89
 20
185.0
 10
4823.29
 20
182.6
 10
4826.89
 20
180.2
 10
4830.49
 20
177.4
 10
4834.09
 20
174.6
 10
4836.89
 20
171.4
 10
4839.690000000001
 20
168.2
 10
4842.09
 20
165.4
 10
4843.690000000001
 20
161.8
 10
4845.29
 20
158.6
 10
4846.09
 20
155.0
  0
LWPOLYLINE
  5
BC
330
1F
100
AcDbEntity
  8
text2
100
AcDbPolyline
 90
       11
 70
     1
 43
0.0
 10
4907.86
 20
85.0
 10
4907.86
 20
106.43
 10
4886.43
 20
106.43
 10
4886.43
 20
85.0
 10
4879.29
 20
85.0
 10
4879.29
 20
127.855
 10
4886.43
 20
135.0
 10
4907.86
 20
135.0
 10
4915.0
 20
127.855
 10
4915.0
 20
85.0
 10
4907.86
 20
85.0
  0
ENDSEC
  0
SECTION
  2
OBJECTS
  0
DICTIONARY
  5
C
330
0
100
AcDbDictionary
281
     1
  3
ACAD_GROUP
350
D
  3
ACAD_LAYOUT
350
1A
  3
ACAD_MLEADERSTYLE
350
BE
  3
ACAD_MLINESTYLE
350
17
  3
ACAD_PLOTSETTINGS
350
19
  3
ACAD_PLOTSTYLENAME
350
E
  3
ACAD_SCALELIST
350
3B
  3
ACAD_TABLESTYLE
350
BD
  3
ACAD_VISUALSTYLE
350
2A
  0
DICTIONARY
  5
D
102
{ACAD_REACTORS
330
C
102
}
330
C
100
AcDbDictionary
281
     1
  0
DICTIONARY
  5
1A
102
{ACAD_REACTORS
330
C
102
}
330
C
100
AcDbDictionary
281
     1
  3
Layout1
350
1E
  3
Layout2
350
26
  3
Model
350
22
  0
DICTIONARY
  5
BE
102
{ACAD_REACTORS
330
C
102
}
330
C
100
AcDbDictionary
281
     1
  0
DICTIONARY
  5
17
102
{ACAD_REACTORS
330
C
102
}
330
C
100
AcDbDictionary
281
     1
  3
Standard
350
18
  0
DICTIONARY
  5
19
102
{ACAD_REACTORS
330
C
102
}
330
C
100
AcDbDictionary
281
     1
  0
ACDBDICTIONARYWDFLT
  5
E
102
{ACAD_REACTORS
330
C
102
}
330
C
100
AcDbDictionary
281
     1
  3
Normal
350
F
100
AcDbDictionaryWithDefault
340
F
  0
DICTIONARY
  5
3B
102
{ACAD_REACTORS
330
C
102
}
330
C
100
AcDbDictionary
281
     1
  3
A0
350
3C
  3
A1
350
3D
  3
A2
350
3E
  3
A3
350
3F
  3
A4
350
40
  3
A5
350
41
  3
A6
350
42
  3
A7
350
43
  3
A8
350
44
  3
A9
350
45
  3
B0
350
46
  3
B1
350
47
  3
B2
350
48
  3
B3
350
49
  3
B4
350
4A
  3
B5
350
4B
  3
B6
350
4C
  3
B7
350
4D
  3
B8
350
4E
  3
B9
350
4F
  3
C0
350
50
  3
C1
350
51
  3
C2
350
52
  3
C3
350
53
  3
C4
350
54
  3
C5
350
55
  3
C6
350
56
  3
C7
350
57
  3
C8
350
58
  3
C9
350
59
  3
D0
350
5A
  3
D1
350
5B
  3
D2
350
5C
  0
DICTIONARY
  5
BD
102
{ACAD_REACTORS
330
C
102
}
330
C
100
AcDbDictionary
281
     1
  0
DICTIONARY
  5
2A
102
{ACAD_REACTORS
330
C
102
}
330
C
100
AcDbDictionary
281
     1
  3
2dWireframe
350
2F
  3
3D Hidden
350
31
  3
3dWireframe
350
30
  3
Basic
350
32
  3
Brighten
350
36
  3
ColorChange
350
3A
  3
Conceptual
350
34
  3
Dim
350
35
  3
Facepattern
350
39
  3
Flat
350
2B
  3
FlatWithEdges
350
2C
  3
Gouraud
350
2D
  3
GouraudWithEdges
350
2E
  3
Linepattern
350
38
  3
Realistic
350
33
  3
Thicken
350
37
  0
LAYOUT
  5
1E
102
{ACAD_REACTORS
330
1A
102
}
330
1A
100
AcDbPlotSettings
  1

  2
none_device
  4

  6

 40
0.0
 41
0.0
 42
0.0
 43
0.0
 44
0.0
 45
0.0
 46
0.0
 47
0.0
 48
0.0
 49
0.0
140
0.0
141
0.0
142
1.0
143
1.0
 70
   688
 72
     0
 73
     0
 74
     5
  7

 75
    16
 76
     0
 77
     2
 78
   300
147
1.0
148
0.0
149
0.0
100
AcDbLayout
  1
Layout1
 70
     1
 71
     1
 10
0.0
 20
0.0
 11
12.0
 21
9.0
 12
0.0
 22
0.0
 32
0.0
 14
1.000000000000000E+20
 24
1.000000000000000E+20
 34
1.000000000000000E+20
 15
-1.000000000000000E+20
 25
-1.000000000000000E+20
 35
-1.000000000000000E+20
146
0.0
 13
0.0
 23
0.0
 33
0.0
 16
1.0
 26
0.0
 36
0.0
 17
0.0
 27
1.0
 37
0.0
 76
     0
330
1B
  0
LAYOUT
  5
26
102
{ACAD_REACTORS
330
1A
102
}
330
1A
100
AcDbPlotSettings
  1

  2
none_device
  4

  6

 40
0.0
 41
0.0
 42
0.0
 43
0.0
 44
0.0
 45
0.0
 46
0.0
 47
0.0
 48
0.0
 49
0.0
140
0.0
141
0.0
142
1.0
143
1.0
 70
   688
 72
     0
 73
     0
 74
     5
  7

 75
    16
 76
     0
 77
     2
 78
   300
147
1.0
148
0.0
149
0.0
100
AcDbLayout
  1
Layout2
 70
     1
 71
     2
 10
0.0
 20
0.0
 11
0.0
 21
0.0
 12
0.0
 22
0.0
 32
0.0
 14
0.0
 24
0.0
 34
0.0
 15
0.0
 25
0.0
 35
0.0
146
0.0
 13
0.0
 23
0.0
 33
0.0
 16
1.0
 26
0.0
 36
0.0
 17
0.0
 27
1.0
 37
0.0
 76
     0
330
23
  0
LAYOUT
  5
22
102
{ACAD_REACTORS
330
1A
102
}
330
1A
100
AcDbPlotSettings
  1

  2
none_device
  4

  6

 40
0.0
 41
0.0
 42
0.0
 43
0.0
 44
0.0
 45
0.0
 46
0.0
 47
0.0
 48
0.0
 49
0.0
140
0.0
141
0.0
142
1.0
143
1.0
 70
  1712
 72
     0
 73
     0
 74
     0
  7

 75
     0
 76
     0
 77
     2
 78
   300
147
1.0
148
0.0
149
0.0
100
AcDbLayout
  1
Model
 70
     1
 71
     0
 10
0.0
 20
0.0
 11
12.0
 21
9.0
 12
0.0
 22
0.0
 32
0.0
 14
1.000000000000000E+20
 24
1.000000000000000E+20
 34
1.000000000000000E+20
 15
-1.000000000000000E+20
 25
-1.000000000000000E+20
 35
-1.000000000000000E+20
146
0.0
 13
0.0
 23
0.0
 33
0.0
 16
1.0
 26
0.0
 36
0.0
 17
0.0
 27
1.0
 37
0.0
 76
     0
330
1F
331
29
  0
MLINESTYLE
  5
18
102
{ACAD_REACTORS
330
17
102
}
330
17
100
AcDbMlineStyle
  2
Standard
 70
     0
  3

 62
   256
 51
90.0
 52
90.0
 71
     2
 49
0.5
 62
   256
  6
BYLAYER
 49
-0.5
 62
   256
  6
BYLAYER
  0
ACDBPLACEHOLDER
  5
F
102
{ACAD_REACTORS
330
E
102
}
330
E
  0
SCALE
  5
3C
102
{ACAD_REACTORS
330
3B
102
}
330
3B
100
AcDbScale
 70
     0
300
1:1
140
1.0
141
1.0
290
     1
  0
SCALE
  5
3D
102
{ACAD_REACTORS
330
3B
102
}
330
3B
100
AcDbScale
 70
     0
300
1:2
140
1.0
141
2.0
290
     0
  0
SCALE
  5
3E
102
{ACAD_REACTORS
330
3B
102
}
330
3B
100
AcDbScale
 70
     0
300
1:4
140
1.0
141
4.0
290
     0
  0
SCALE
  5
3F
102
{ACAD_REACTORS
330
3B
102
}
330
3B
100
AcDbScale
 70
     0
300
1:5
140
1.0
141
5.0
290
     0
  0
SCALE
  5
40
102
{ACAD_REACTORS
330
3B
102
}
330
3B
100
AcDbScale
 70
     0
300
1:8
140
1.0
141
8.0
290
     0
  0
SCALE
  5
41
102
{ACAD_REACTORS
330
3B
102
}
330
3B
100
AcDbScale
 70
     0
300
1:10
140
1.0
141
10.0
290
     0
  0
SCALE
  5
42
102
{ACAD_REACTORS
330
3B
102
}
330
3B
100
AcDbScale
 70
     0
300
1:16
140
1.0
141
16.0
290
     0
  0
SCALE
  5
43
102
{ACAD_REACTORS
330
3B
102
}
330
3B
100
AcDbScale
 70
     0
300
1:20
140
1.0
141
20.0
290
     0
  0
SCALE
  5
44
102
{ACAD_REACTORS
330
3B
102
}
330
3B
100
AcDbScale
 70
     0
300
1:30
140
1.0
141
30.0
290
     0
  0
SCALE
  5
45
102
{ACAD_REACTORS
330
3B
102
}
330
3B
100
AcDbScale
 70
     0
300
1:40
140
1.0
141
40.0
290
     0
  0
SCALE
  5
46
102
{ACAD_REACTORS
330
3B
102
}
330
3B
100
AcDbScale
 70
     0
300
1:50
140
1.0
141
50.0
290
     0
  0
SCALE
  5
47
102
{ACAD_REACTORS
330
3B
102
}
330
3B
100
AcDbScale
 70
     0
300
1:100
140
1.0
141
100.0
290
     0
  0
SCALE
  5
48
102
{ACAD_REACTORS
330
3B
102
}
330
3B
100
AcDbScale
 70
     0
300
2:1
140
2.0
141
1.0
290
     0
  0
SCALE
  5
49
102
{ACAD_REACTORS
330
3B
102
}
330
3B
100
AcDbScale
 70
     0
300
4:1
140
4.0
141
1.0
290
     0
  0
SCALE
  5
4A
102
{ACAD_REACTORS
330
3B
102
}
330
3B
100
AcDbScale
 70
     0
300
8:1
140
8.0
141
1.0
290
     0
  0
SCALE
  5
4B
102
{ACAD_REACTORS
330
3B
102
}
330
3B
100
AcDbScale
 70
     0
300
10:1
140
10.0
141
1.0
290
     0
  0
SCALE
  5
4C
102
{ACAD_REACTORS
330
3B
102
}
330
3B
100
AcDbScale
 70
     0
300
100:1
140
100.0
141
1.0
290
     0
  0
SCALE
  5
4D
102
{ACAD_REACTORS
330
3B
102
}
330
3B
100
AcDbScale
 70
     0
300
1/128" = 1'-0"
140
0.0078125
141
12.0
290
     0
  0
SCALE
  5
4E
102
{ACAD_REACTORS
330
3B
102
}
330
3B
100
AcDbScale
 70
     0
300
1/64" = 1'-0"
140
0.015625
141
12.0
290
     0
  0
SCALE
  5
4F
102
{ACAD_REACTORS
330
3B
102
}
330
3B
100
AcDbScale
 70
     0
300
1/32" = 1'-0"
140
0.03125
141
12.0
290
     0
  0
SCALE
  5
50
102
{ACAD_REACTORS
330
3B
102
}
330
3B
100
AcDbScale
 70
     0
300
1/16" = 1'-0"
140
0.0625
141
12.0
290
     0
  0
SCALE
  5
51
102
{ACAD_REACTORS
330
3B
102
}
330
3B
100
AcDbScale
 70
     0
300
3/32" = 1'-0"
140
0.09375
141
12.0
290
     0
  0
SCALE
  5
52
102
{ACAD_REACTORS
330
3B
102
}
330
3B
100
AcDbScale
 70
     0
300
1/8" = 1'-0"
140
0.125
141
12.0
290
     0
  0
SCALE
  5
53
102
{ACAD_REACTORS
330
3B
102
}
330
3B
100
AcDbScale
 70
     0
300
3/16" = 1'-0"
140
0.1875
141
12.0
290
     0
  0
SCALE
  5
54
102
{ACAD_REACTORS
330
3B
102
}
330
3B
100
AcDbScale
 70
     0
300
1/4" = 1'-0"
140
0.25
141
12.0
290
     0
  0
SCALE
  5
55
102
{ACAD_REACTORS
330
3B
102
}
330
3B
100
AcDbScale
 70
     0
300
3/8" = 1'-0"
140
0.375
141
12.0
290
     0
  0
SCALE
  5
56
102
{ACAD_REACTORS
330
3B
102
}
330
3B
100
AcDbScale
 70
     0
300
1/2" = 1'-0"
140
0.5
141
12.0
290
     0
  0
SCALE
  5
57
102
{ACAD_REACTORS
330
3B
102
}
330
3B
100
AcDbScale
 70
     0
300
3/4" = 1'-0"
140
0.75
141
12.0
290
     0
  0
SCALE
  5
58
102
{ACAD_REACTORS
330
3B
102
}
330
3B
100
AcDbScale
 70
     0
300
1" = 1'-0"
140
1.0
141
12.0
290
     0
  0
SCALE
  5
59
102
{ACAD_REACTORS
330
3B
102
}
330
3B
100
AcDbScale
 70
     0
300
1-1/2" = 1'-0"
140
1.5
141
12.0
290
     0
  0
SCALE
  5
5A
102
{ACAD_REACTORS
330
3B
102
}
330
3B
100
AcDbScale
 70
     0
300
3" = 1'-0"
140
3.0
141
12.0
290
     0
  0
SCALE
  5
5B
102
{ACAD_REACTORS
330
3B
102
}
330
3B
100
AcDbScale
 70
     0
300
6" = 1'-0"
140
6.0
141
12.0
290
     0
  0
SCALE
  5
5C
102
{ACAD_REACTORS
330
3B
102
}
330
3B
100
AcDbScale
 70
     0
300
1'-0" = 1'-0"
140
12.0
141
12.0
290
     0
  0
VISUALSTYLE
  5
2F
102
{ACAD_REACTORS
330
2A
102
}
330
2A
100
AcDbVisualStyle
  2
2dWireframe
 70
     4
 71
     0
 72
     2
 73
     0
 90
        0
 40
-0.6
 41
-30.0
 62
     5
 63
     7
421
 16777215
 74
     1
 91
        4
 64
     7
 65
   257
 75
     1
175
     1
 42
1.0
 92
        0
 66
   257
 43
1.0
 76
     1
 77
     6
 78
     2
 67
     7
 79
     5
170
     0
171
     0
290
     0
174
     0
 93
        1
 44
0.0
173
     0
291
     0
 45
0.0
1001
ACAD
1000
AcDbSavedByObjectVersion
1070
     0
  0
VISUALSTYLE
  5
31
102
{ACAD_REACTORS
330
2A
102
}
330
2A
100
AcDbVisualStyle
  2
3D Hidden
 70
     6
 71
     1
 72
     2
 73
     2
 90
        0
 40
-0.6
 41
-30.0
 62
     5
 63
     7
421
 16777215
 74
     2
 91
        2
 64
     7
 65
   257
 75
     2
175
     1
 42
40.0
 92
        0
 66
   257
 43
1.0
 76
     1
 77
     6
 78
     2
 67
     7
 79
     3
170
     0
171
     0
290
     0
174
     0
 93
        1
 44
0.0
173
     0
291
     0
 45
0.0
1001
ACAD
1000
AcDbSavedByObjectVersion
1070
     0
  0
VISUALSTYLE
  5
30
102
{ACAD_REACTORS
330
2A
102
}
330
2A
100
AcDbVisualStyle
  2
3dWireframe
 70
     5
 71
     0
 72
     2
 73
     0
 90
        0
 40
-0.6
 41
-30.0
 62
     5
 63
     7
421
 16777215
 74
     1
 91
        4
 64
     7
 65
   257
 75
     1
175
     1
 42
1.0
 92
        0
 66
   257
 43
1.0
 76
     1
 77
     6
 78
     2
 67
     7
 79
     5
170
     0
171
     0
290
     0
174
     0
 93
        1
 44
0.0
173
     0
291
     0
 45
0.0
1001
ACAD
1000
AcDbSavedByObjectVersion
1070
     0
  0
VISUALSTYLE
  5
32
102
{ACAD_REACTORS
330
2A
102
}
330
2A
100
AcDbVisualStyle
  2
Basic
 70
     7
 71
     1
 72
     0
 73
     1
 90
        0
 40
-0.6
 41
-30.0
 62
     5
 63
     7
421
 16777215
 74
     0
 91
        4
 64
     7
 65
   257
 75
     1
175
     1
 42
1.0
 92
        8
 66
     7
 43
1.0
 76
     1
 77
     6
 78
     2
 67
     7
 79
     5
170
     0
171
     0
290
     0
174
     0
 93
        1
 44
0.0
173
     0
291
     1
 45
0.0
1001
ACAD
1000
AcDbSavedByObjectVersion
1070
     0
  0
VISUALSTYLE
  5
36
102
{ACAD_REACTORS
330
2A
102
}
330
2A
100
AcDbVisualStyle
  2
Brighten
 70
    12
 71
     2
 72
     2
 73
     0
 90
        0
 40
-0.6
 41
-30.0
 62
     5
 63
     7
421
 16777215
 74
     1
 91
        4
 64
     7
 65
   257
 75
     1
175
     1
 42
1.0
 92
        8
 66
     7
 43
1.0
 76
     1
 77
     6
 78
     2
 67
     7
 79
     5
170
     0
171
     0
290
     0
174
     0
 93
        1
 44
50.0
173
     0
291
     1
 45
0.0
1001
ACAD
1000
AcDbSavedByObjectVersion
1070
     0
  0
VISUALSTYLE
  5
3A
102
{ACAD_REACTORS
330
2A
102
}
330
2A
100
AcDbVisualStyle
  2
ColorChange
 70
    16
 71
     2
 72
     2
 73
     3
 90
        0
 40
-0.6
 41
-30.0
 62
     5
 63
     8
421
  8421504
 74
     1
 91
        4
 64
     7
 65
   257
 75
     1
175
     1
 42
1.0
 92
        8
 66
     8
424
  8421504
 43
1.0
 76
     1
 77
     6
 78
     2
 67
     7
 79
     5
170
     0
171
     0
290
     0
174
     0
 93
        1
 44
0.0
173
     0
291
     1
 45
0.0
1001
ACAD
1000
AcDbSavedByObjectVersion
1070
     0
  0
VISUALSTYLE
  5
34
102
{ACAD_REACTORS
330
2A
102
}
330
2A
100
AcDbVisualStyle
  2
Conceptual
 70
     9
 71
     3
 72
     2
 73
     0
 90
        0
 40
-0.6
 41
-30.0
 62
     5
 63
     7
421
 16777215
 74
     2
 91
        2
 64
     7
 65
   257
 75
     1
175
     1
 42
40.0
 92
        8
 66
     7
 43
1.0
 76
     1
 77
     6
 78
     2
 67
     7
 79
     3
170
     0
171
     0
290
     0
174
     0
 93
        1
 44
0.0
173
     0
291
     0
 45
0.0
1001
ACAD
1000
AcDbSavedByObjectVersion
1070
     0
  0
VISUALSTYLE
  5
35
102
{ACAD_REACTORS
330
2A
102
}
330
2A
100
AcDbVisualStyle
  2
Dim
 70
    11
 71
     2
 72
     2
 73
     0
 90
        0
 40
-0.6
 41
-30.0
 62
     5
 63
     7
421
 16777215
 74
     1
 91
        4
 64
     7
 65
   257
 75
     1
175
     1
 42
1.0
 92
        8
 66
     7
 43
1.0
 76
     1
 77
     6
 78
     2
 67
     7
 79
     5
170
     0
171
     0
290
     0
174
     0
 93
        1
 44
-50.0
173
     0
291
     1
 45
0.0
1001
ACAD
1000
AcDbSavedByObjectVersion
1070
     0
  0
VISUALSTYLE
  5
39
102
{ACAD_REACTORS
330
2A
102
}
330
2A
100
AcDbVisualStyle
  2
Facepattern
 70
    15
 71
     2
 72
     2
 73
     0
 90
        0
 40
-0.6
 41
-30.0
 62
     5
 63
     7
421
 16777215
 74
     1
 91
        4
 64
     7
 65
   257
 75
     1
175
     1
 42
1.0
 92
        8
 66
     7
 43
1.0
 76
     1
 77
     6
 78
     2
 67
     7
 79
     5
170
     0
171
     0
290
     0
174
     0
 93
        1
 44
0.0
173
     0
291
     1
 45
0.0
1001
ACAD
1000
AcDbSavedByObjectVersion
1070
     0
  0
VISUALSTYLE
  5
2B
102
{ACAD_REACTORS
330
2A
102
}
330
2A
100
AcDbVisualStyle
  2
Flat
 70
     0
 71
     2
 72
     1
 73
     1
 90
        2
 40
-0.6
 41
30.0
 62
     5
 63
     7
421
 16777215
 74
     0
 91
        4
 64
     7
 65
   257
 75
     1
175
     1
 42
1.0
 92
        8
 66
     7
 43
1.0
 76
     1
 77
     6
 78
     2
 67
     7
 79
     5
170
     0
171
     0
290
     0
174
     0
 93
       13
 44
0.0
173
     0
291
     1
 45
0.0
1001
ACAD
1000
AcDbSavedByObjectVersion
1070
     0
  0
VISUALSTYLE
  5
2C
102
{ACAD_REACTORS
330
2A
102
}
330
2A
100
AcDbVisualStyle
  2
FlatWithEdges
 70
     1
 71
     2
 72
     1
 73
     1
 90
        2
 40
-0.6
 41
30.0
 62
     5
 63
     7
421
 16777215
 74
     1
 91
        4
 64
     7
 65
   257
 75
     1
175
     1
 42
1.0
 92
        0
 66
   257
 43
1.0
 76
     1
 77
     6
 78
     2
 67
     7
 79
     5
170
     0
171
     0
290
     0
174
     0
 93
       13
 44
0.0
173
     0
291
     1
 45
0.0
1001
ACAD
1000
AcDbSavedByObjectVersion
1070
     0
  0
VISUALSTYLE
  5
2D
102
{ACAD_REACTORS
330
2A
102
}
330
2A
100
AcDbVisualStyle
  2
Gouraud
 70
     2
 71
     2
 72
     2
 73
     1
 90
        2
 40
-0.6
 41
30.0
 62
     5
 63
     7
421
 16777215
 74
     0
 91
        4
 64
     7
 65
   257
 75
     1
175
     1
 42
1.0
 92
        0
 66
     7
 43
1.0
 76
     1
 77
     6
 78
     2
 67
     7
 79
     5
170
     0
171
     0
290
     0
174
     0
 93
       13
 44
0.0
173
     0
291
     1
 45
0.0
1001
ACAD
1000
AcDbSavedByObjectVersion
1070
     0
  0
VISUALSTYLE
  5
2E
102
{ACAD_REACTORS
330
2A
102
}
330
2A
100
AcDbVisualStyle
  2
GouraudWithEdges
 70
     3
 71
     2
 72
     2
 73
     1
 90
        2
 40
-0.6
 41
30.0
 62
     5
 63
     7
421
 16777215
 74
     1
 91
        4
 64
     7
 65
   257
 75
     1
175
     1
 42
1.0
 92
        0
 66
   257
 43
1.0
 76
     1
 77
     6
 78
     2
 67
     7
 79
     5
170
     0
171
     0
290
     0
174
     0
 93
       13
 44
0.0
173
     0
291
     1
 45
0.0
1001
ACAD
1000
AcDbSavedByObjectVersion
1070
     0
  0
VISUALSTYLE
  5
38
102
{ACAD_REACTORS
330
2A
102
}
330
2A
100
AcDbVisualStyle
  2
Linepattern
 70
    14
 71
     2
 72
     2
 73
     0
 90
        0
 40
-0.6
 41
-30.0
 62
     5
 63
     7
421
 16777215
 74
     1
 91
        4
 64
     7
 65
   257
 75
     7
175
     7
 42
1.0
 92
        8
 66
     7
 43
1.0
 76
     1
 77
     6
 78
     2
 67
     7
 79
     5
170
     0
171
     0
290
     0
174
     0
 93
        1
 44
0.0
173
     0
291
     1
 45
0.0
1001
ACAD
1000
AcDbSavedByObjectVersion
1070
     0
  0
VISUALSTYLE
  5
33
102
{ACAD_REACTORS
330
2A
102
}
330
2A
100
AcDbVisualStyle
  2
Realistic
 70
     8
 71
     2
 72
     2
 73
     0
 90
        0
 40
-0.6
 41
-30.0
 62
     5
 63
     7
421
 16777215
 74
     1
 91
        0
 64
     7
 65
   257
 75
     1
175
     1
 42
1.0
 92
        8
 66
     8
424
  7895160
 43
1.0
 76
     1
 77
     6
 78
     2
 67
     7
 79
     5
170
     0
171
     0
290
     0
174
     0
 93
       13
 44
0.0
173
     0
291
     0
 45
0.0
1001
ACAD
1000
AcDbSavedByObjectVersion
1070
     0
  0
VISUALSTYLE
  5
37
102
{ACAD_REACTORS
330
2A
102
}
330
2A
100
AcDbVisualStyle
  2
Thicken
 70
    13
 71
     2
 72
     2
 73
     0
 90
        0
 40
-0.6
 41
-30.0
 62
     5
 63
     7
421
 16777215
 74
     1
 91
        4
 64
     7
 65
   257
 75
     1
175
     1
 42
1.0
 92
       12
 66
     7
 43
1.0
 76
     1
 77
     6
 78
     2
 67
     7
 79
     5
170
     0
171
     0
290
     0
174
     0
 93
        1
 44
0.0
173
     0
291
     1
 45
0.0
1001
ACAD
1000
AcDbSavedByObjectVersion
1070
     0
  0
ENDSEC
  0
EOF
