  0
SECTION
  2
HEADER
  9
$ACADVER
  1
AC1018
  9
$ACADMAINTVER
 70
     0
  9
$DWGCODEPAGE
  3
ANSI_1252
  9
$INSBASE
 10
0.0
 20
0.0
 30
0.0
  9
$EXTMIN
 10
1.000000000000000E+20
 20
1.000000000000000E+20
 30
1.000000000000000E+20
  9
$EXTMAX
 10
-1.000000000000000E+20
 20
-1.000000000000000E+20
 30
-1.000000000000000E+20
  9
$LIMMIN
 10
0.0
 20
0.0
  9
$LIMMAX
 10
12.0
 20
9.0
  9
$ORTHOMODE
 70
     0
  9
$REGENMODE
 70
     1
  9
$FILLMODE
 70
     1
  9
$QTEXTMODE
 70
     0
  9
$MIRRTEXT
 70
     1
  9
$LTSCALE
 40
1.0
  9
$ATTMODE
 70
     1
  9
$TEXTSIZE
 40
0.2
  9
$TRACEWID
 40
0.05
  9
$TEXTSTYLE
  7
Standard
  9
$CLAYER
  8
0
  9
$CELTYPE
  6
ByLayer
  9
$CECOLOR
 62
   256
  9
$CELTSCALE
 40
1.0
  9
$DISPSILH
 70
     0
  9
$DIMSCALE
 40
1.0
  9
$DIMASZ
 40
0.18
  9
$DIMEXO
 40
0.0625
  9
$DIMDLI
 40
0.38
  9
$DIMRND
 40
0.0
  9
$DIMDLE
 40
0.0
  9
$DIMEXE
 40
0.18
  9
$DIMTP
 40
0.0
  9
$DIMTM
 40
0.0
  9
$DIMTXT
 40
0.18
  9
$DIMCEN
 40
0.09
  9
$DIMTSZ
 40
0.0
  9
$DIMTOL
 70
     0
  9
$DIMLIM
 70
     0
  9
$DIMTIH
 70
     1
  9
$DIMTOH
 70
     1
  9
$DIMSE1
 70
     0
  9
$DIMSE2
 70
     0
  9
$DIMTAD
 70
     0
  9
$DIMZIN
 70
     0
  9
$DIMBLK
  1

  9
$DIMASO
 70
     1
  9
$DIMSHO
 70
     1
  9
$DIMPOST
  1

  9
$DIMAPOST
  1

  9
$DIMALT
 70
     0
  9
$DIMALTD
 70
     2
  9
$DIMALTF
 40
25.4
  9
$DIMLFAC
 40
1.0
  9
$DIMTOFL
 70
     0
  9
$DIMTVP
 40
0.0
  9
$DIMTIX
 70
     0
  9
$DIMSOXD
 70
     0
  9
$DIMSAH
 70
     0
  9
$DIMBLK1
  1

  9
$DIMBLK2
  1

  9
$DIMSTYLE
  2
Standard
  9
$DIMCLRD
 70
     0
  9
$DIMCLRE
 70
     0
  9
$DIMCLRT
 70
     0
  9
$DIMTFAC
 40
1.0
  9
$DIMGAP
 40
0.09
  9
$DIMJUST
 70
     0
  9
$DIMSD1
 70
     0
  9
$DIMSD2
 70
     0
  9
$DIMTOLJ
 70
     1
  9
$DIMTZIN
 70
     0
  9
$DIMALTZ
 70
     0
  9
$DIMALTTZ
 70
     0
  9
$DIMUPT
 70
     0
  9
$DIMDEC
 70
     4
  9
$DIMTDEC
 70
     4
  9
$DIMALTU
 70
     2
  9
$DIMALTTD
 70
     2
  9
$DIMTXSTY
  7
Standard
  9
$DIMAUNIT
 70
     0
  9
$DIMADEC
 70
     0
  9
$DIMALTRND
 40
0.0
  9
$DIMAZIN
 70
     0
  9
$DIMDSEP
 70
    46
  9
$DIMATFIT
 70
     3
  9
$DIMFRAC
 70
     0
  9
$DIMLDRBLK
  1

  9
$DIMLUNIT
 70
     2
  9
$DIMLWD
 70
    -2
  9
$DIMLWE
 70
    -2
  9
$DIMTMOVE
 70
     0
  9
$LUNITS
 70
     2
  9
$LUPREC
 70
     4
  9
$SKETCHINC
 40
0.1
  9
$FILLETRAD
 40
0.5
  9
$AUNITS
 70
     0
  9
$AUPREC
 70
     0
  9
$MENU
  1
.
  9
$ELEVATION
 40
0.0
  9
$PELEVATION
 40
0.0
  9
$THICKNESS
 40
0.0
  9
$LIMCHECK
 70
     0
  9
$CHAMFERA
 40
0.5
  9
$CHAMFERB
 40
0.5
  9
$CHAMFERC
 40
1.0
  9
$CHAMFERD
 40
0.0
  9
$SKPOLY
 70
     0
  9
$TDCREATE
 40
2456954.457219121
  9
$TDUCREATE
 40
2456954.373885787
  9
$TDUPDATE
 40
2456954.457219132
  9
$TDUUPDATE
 40
2456954.373885799
  9
$TDINDWG
 40
0.0000000116
  9
$TDUSRTIMER
 40
0.0000000116
  9
$USRTIMER
 70
     1
  9
$ANGBASE
 50
0.0
  9
$ANGDIR
 70
     0
  9
$PDMODE
 70
     0
  9
$PDSIZE
 40
0.0
  9
$PLINEWID
 40
0.0
  9
$SPLFRAME
 70
     0
  9
$SPLINETYPE
 70
     6
  9
$SPLINESEGS
 70
     8
  9
$HANDSEED
  5
85
  9
$SURFTAB1
 70
     6
  9
$SURFTAB2
 70
     6
  9
$SURFTYPE
 70
     6
  9
$SURFU
 70
     6
  9
$SURFV
 70
     6
  9
$UCSBASE
  2

  9
$UCSNAME
  2

  9
$UCSORG
 10
0.0
 20
0.0
 30
0.0
  9
$UCSXDIR
 10
1.0
 20
0.0
 30
0.0
  9
$UCSYDIR
 10
0.0
 20
1.0
 30
0.0
  9
$UCSORTHOREF
  2

  9
$UCSORTHOVIEW
 70
     0
  9
$UCSORGTOP
 10
0.0
 20
0.0
 30
0.0
  9
$UCSORGBOTTOM
 10
0.0
 20
0.0
 30
0.0
  9
$UCSORGLEFT
 10
0.0
 20
0.0
 30
0.0
  9
$UCSORGRIGHT
 10
0.0
 20
0.0
 30
0.0
  9
$UCSORGFRONT
 10
0.0
 20
0.0
 30
0.0
  9
$UCSORGBACK
 10
0.0
 20
0.0
 30
0.0
  9
$PUCSBASE
  2

  9
$PUCSNAME
  2

  9
$PUCSORG
 10
0.0
 20
0.0
 30
0.0
  9
$PUCSXDIR
 10
1.0
 20
0.0
 30
0.0
  9
$PUCSYDIR
 10
0.0
 20
1.0
 30
0.0
  9
$PUCSORTHOREF
  2

  9
$PUCSORTHOVIEW
 70
     0
  9
$PUCSORGTOP
 10
0.0
 20
0.0
 30
0.0
  9
$PUCSORGBOTTOM
 10
0.0
 20
0.0
 30
0.0
  9
$PUCSORGLEFT
 10
0.0
 20
0.0
 30
0.0
  9
$PUCSORGRIGHT
 10
0.0
 20
0.0
 30
0.0
  9
$PUCSORGFRONT
 10
0.0
 20
0.0
 30
0.0
  9
$PUCSORGBACK
 10
0.0
 20
0.0
 30
0.0
  9
$USERI1
 70
     0
  9
$USERI2
 70
     0
  9
$USERI3
 70
     0
  9
$USERI4
 70
     0
  9
$USERI5
 70
     0
  9
$USERR1
 40
0.0
  9
$USERR2
 40
0.0
  9
$USERR3
 40
0.0
  9
$USERR4
 40
0.0
  9
$USERR5
 40
0.0
  9
$WORLDVIEW
 70
     1
  9
$SHADEDGE
 70
     3
  9
$SHADEDIF
 70
    70
  9
$TILEMODE
 70
     1
  9
$MAXACTVP
 70
    64
  9
$PINSBASE
 10
0.0
 20
0.0
 30
0.0
  9
$PLIMCHECK
 70
     0
  9
$PEXTMIN
 10
1.000000000000000E+20
 20
1.000000000000000E+20
 30
1.000000000000000E+20
  9
$PEXTMAX
 10
-1.000000000000000E+20
 20
-1.000000000000000E+20
 30
-1.000000000000000E+20
  9
$PLIMMIN
 10
0.0
 20
0.0
  9
$PLIMMAX
 10
12.0
 20
9.0
  9
$UNITMODE
 70
     0
  9
$VISRETAIN
 70
     1
  9
$PLINEGEN
 70
     0
  9
$PSLTSCALE
 70
     1
  9
$TREEDEPTH
 70
  3020
  9
$CMLSTYLE
  2
Standard
  9
$CMLJUST
 70
     0
  9
$CMLSCALE
 40
1.0
  9
$PROXYGRAPHICS
 70
     1
  9
$MEASUREMENT
 70
     0
  9
$CELWEIGHT
370
    -1
  9
$ENDCAPS
280
     0
  9
$JOINSTYLE
280
     0
  9
$LWDISPLAY
290
     0
  9
$INSUNITS
 70
    13
  9
$HYPERLINKBASE
  1

  9
$STYLESHEET
  1

  9
$XEDIT
290
     1
  9
$CEPSNTYPE
380
     0
  9
$PSTYLEMODE
290
     1
  9
$FINGERPRINTGUID
  2
{32D6CC54-66FB-4D25-ABCF-C6D9FC62F24A}
  9
$VERSIONGUID
  2
{FAEB1C32-E019-11D5-929B-00C0DF256EC4}
  9
$EXTNAMES
290
     1
  9
$PSVPSCALE
 40
0.0
  9
$OLESTARTUP
290
     0
  9
$SORTENTS
280
   127
  9
$INDEXCTL
280
     0
  9
$HIDETEXT
280
     1
  9
$XCLIPFRAME
290
     0
  9
$HALOGAP
280
     0
  9
$OBSCOLOR
 70
   257
  9
$OBSLTYPE
280
     0
  9
$INTERSECTIONDISPLAY
280
     0
  9
$INTERSECTIONCOLOR
 70
   257
  9
$DIMASSOC
280
     2
  9
$PROJECTNAME
  1

  0
ENDSEC
  0
SECTION
  2
CLASSES
  0
CLASS
  1
ACDBDICTIONARYWDFLT
  2
AcDbDictionaryWithDefault
  3
ObjectDBX Classes
 90
        0
 91
       13
280
     0
281
     0
  0
CLASS
  1
VISUALSTYLE
  2
AcDbVisualStyle
  3
ObjectDBX Classes
 90
     4095
 91
       13
280
     0
281
     0
  0
CLASS
  1
SCALE
  2
AcDbScale
  3
ObjectDBX Classes
 90
     1153
 91
       13
280
     0
281
     0
  0
ENDSEC
  0
SECTION
  2
TABLES
  0
TABLE
  2
VPORT
  5
8
330
0
100
AcDbSymbolTable
 70
     1
  0
VPORT
  5
29
330
8
100
AcDbSymbolTableRecord
100
AcDbViewportTableRecord
  2
*Active
 70
     0
 10
0.0
 20
0.0
 11
1.0
 21
1.0
 12
10.42990654205607
 22
4.5
 13
0.0
 23
0.0
 14
0.5
 24
0.5
 15
0.5
 25
0.5
 16
0.0
 26
0.0
 36
1.0
 17
0.0
 27
0.0
 37
0.0
 40
9.0
 41
1.972972972850329
 42
50.0
 43
0.0
 44
0.0
 50
0.0
 51
0.0
 71
     0
 72
   100
 73
     1
 74
     3
 75
     0
 76
     0
 77
     0
 78
     0
281
     0
 65
     1
110
0.0
120
0.0
130
0.0
111
1.0
121
0.0
131
0.0
112
0.0
122
1.0
132
0.0
 79
     0
146
0.0
  0
ENDTAB
  0
TABLE
  2
LTYPE
  5
5
330
0
100
AcDbSymbolTable
 70
     1
  0
LTYPE
  5
14
330
5
100
AcDbSymbolTableRecord
100
AcDbLinetypeTableRecord
  2
ByBlock
 70
     0
  3

 72
    65
 73
     0
 40
0.0
  0
LTYPE
  5
15
330
5
100
AcDbSymbolTableRecord
100
AcDbLinetypeTableRecord
  2
ByLayer
 70
     0
  3

 72
    65
 73
     0
 40
0.0
  0
LTYPE
  5
16
330
5
100
AcDbSymbolTableRecord
100
AcDbLinetypeTableRecord
  2
Continuous
 70
     0
  3
Solid line
 72
    65
 73
     0
 40
0.0
  0
ENDTAB
  0
TABLE
  2
LAYER
  5
2
330
0
100
AcDbSymbolTable
 70
     2
  0
LAYER
  5
10
330
2
100
AcDbSymbolTableRecord
100
AcDbLayerTableRecord
  2
0
 70
     0
 62
     7
  6
Continuous
370
    -3
390
F
  0
LAYER
  5
5E
330
2
100
AcDbSymbolTableRecord
100
AcDbLayerTableRecord
  2
text2
 70
     0
 62
    16
420
  8388608
  6
Continuous
370
    -3
390
F
  0
ENDTAB
  0
TABLE
  2
STYLE
  5
3
330
0
100
AcDbSymbolTable
 70
     1
  0
STYLE
  5
11
330
3
100
AcDbSymbolTableRecord
100
AcDbTextStyleTableRecord
  2
Standard
 70
     0
 40
0.0
 41
1.0
 50
0.0
 71
     0
 42
0.2
  3
txt
  4

  0
ENDTAB
  0
TABLE
  2
VIEW
  5
6
330
0
100
AcDbSymbolTable
 70
     0
  0
ENDTAB
  0
TABLE
  2
UCS
  5
7
330
0
100
AcDbSymbolTable
 70
     0
  0
ENDTAB
  0
TABLE
  2
APPID
  5
9
330
0
100
AcDbSymbolTable
 70
     1
  0
APPID
  5
12
330
9
100
AcDbSymbolTableRecord
100
AcDbRegAppTableRecord
  2
ACAD
 70
     0
  0
ENDTAB
  0
TABLE
  2
DIMSTYLE
  5
A
330
0
100
AcDbSymbolTable
 70
     1
100
AcDbDimStyleTable
  0
DIMSTYLE
105
27
330
A
100
AcDbSymbolTableRecord
100
AcDbDimStyleTableRecord
  2
Standard
 70
     0
340
11
  0
ENDTAB
  0
TABLE
  2
BLOCK_RECORD
  5
1
330
0
100
AcDbSymbolTable
 70
     1
  0
BLOCK_RECORD
  5
1F
330
1
100
AcDbSymbolTableRecord
100
AcDbBlockTableRecord
  2
*Model_Space
340
22
  0
BLOCK_RECORD
  5
1B
330
1
100
AcDbSymbolTableRecord
100
AcDbBlockTableRecord
  2
*Paper_Space
340
1E
  0
BLOCK_RECORD
  5
23
330
1
100
AcDbSymbolTableRecord
100
AcDbBlockTableRecord
  2
*Paper_Space0
340
26
  0
ENDTAB
  0
ENDSEC
  0
SECTION
  2
BLOCKS
  0
BLOCK
  5
20
330
1F
100
AcDbEntity
  8
0
100
AcDbBlockBegin
  2
*Model_Space
 70
     0
 10
0.0
 20
0.0
 30
0.0
  3
*Model_Space
  1

  0
ENDBLK
  5
21
330
1F
100
AcDbEntity
  8
0
100
AcDbBlockEnd
  0
BLOCK
  5
1C
330
1B
100
AcDbEntity
 67
     1
  8
0
100
AcDbBlockBegin
  2
*Paper_Space
 70
     0
 10
0.0
 20
0.0
 30
0.0
  3
*Paper_Space
  1

  0
ENDBLK
  5
1D
330
1B
100
AcDbEntity
 67
     1
  8
0
100
AcDbBlockEnd
  0
BLOCK
  5
24
330
23
100
AcDbEntity
  8
0
100
AcDbBlockBegin
  2
*Paper_Space0
 70
     0
 10
0.0
 20
0.0
 30
0.0
  3
*Paper_Space0
  1

  0
ENDBLK
  5
25
330
23
100
AcDbEntity
  8
0
100
AcDbBlockEnd
  0
ENDSEC
  0
SECTION
  2
ENTITIES
  0
LWPOLYLINE
  5
5D
330
1F
100
AcDbEntity
  8
text2
100
AcDbPolyline
 90
        9
 70
     1
 43
0.0
 10
302.816
 20
243.7
 10
291.384
 20
243.7
 10
285.672
 20
249.416
 10
285.672
 20
277.984
 10
291.384
 20
283.7
 10
302.816
 20
283.7
 10
308.528
 20
277.984
 10
308.528
 20
249.416
 10
302.816
 20
243.7
  0
LWPOLYLINE
  5
5F
330
1F
100
AcDbEntity
  8
text2
100
AcDbPolyline
 90
        9
 70
     1
 43
0.0
 10
262.816
 20
243.7
 10
251.384
 20
243.7
 10
245.672
 20
249.416
 10
245.672
 20
277.984
 10
251.384
 20
283.7
 10
262.816
 20
283.7
 10
268.528
 20
277.984
 10
268.528
 20
249.416
 10
262.816
 20
243.7
  0
LWPOLYLINE
  5
60
330
1F
100
AcDbEntity
  8
text2
100
AcDbPolyline
 90
       19
 70
     1
 43
0.0
 10
391.384
 20
277.984
 10
368.528
 20
277.984
 10
368.528
 20
269.416
 10
385.672
 20
269.416
 10
391.384
 20
263.7
 10
391.384
 20
249.416
 10
385.672
 20
243.7
 10
368.528
 20
243.7
 10
362.816
 20
249.416
 10
368.528
 20
252.272
 10
371.384
 20
249.416
 10
382.816
 20
249.416
 10
385.672
 20
252.272
 10
385.672
 20
260.844
 10
382.816
 20
263.7
 10
362.816
 20
263.7
 10
362.816
 20
283.7
 10
391.384
 20
283.7
 10
391.384
 20
277.984
  0
LWPOLYLINE
  5
61
330
1F
100
AcDbEntity
  8
text2
100
AcDbPolyline
 90
       11
 70
     1
 43
0.0
 10
328.528
 20
277.984
 10
334.244
 20
283.7
 10
339.956
 20
283.7
 10
339.956
 20
249.416
 10
345.672
 20
249.416
 10
345.672
 20
243.7
 10
328.528
 20
243.7
 10
328.528
 20
249.416
 10
334.244
 20
249.416
 10
334.244
 20
277.984
 10
328.528
 20
277.984
  0
LWPOLYLINE
  5
62
330
1F
100
AcDbEntity
  8
text2
100
AcDbPolyline
 90
       25
 70
     1
 43
0.0
 10
202.816
 20
277.984
 10
208.528
 20
283.7
 10
225.672
 20
283.7
 10
231.384
 20
277.984
 10
225.672
 20
275.128
 10
222.816
 20
277.984
 10
211.384
 20
277.984
 10
208.528
 20
275.128
 10
208.528
 20
269.416
 10
211.384
 20
266.556
 10
225.672
 20
266.556
 10
231.384
 20
260.844
 10
231.384
 20
249.416
 10
225.672
 20
243.7
 10
208.528
 20
243.7
 10
202.816
 20
249.416
 10
208.528
 20
252.272
 10
211.384
 20
249.416
 10
222.816
 20
249.416
 10
225.672
 20
252.272
 10
225.672
 20
257.984
 10
222.816
 20
260.844
 10
208.528
 20
260.844
 10
202.816
 20
266.556
 10
202.816
 20
277.984
  0
LWPOLYLINE
  5
63
330
1F
100
AcDbEntity
  8
text2
100
AcDbPolyline
 90
       25
 70
     1
 43
0.0
 10
162.816
 20
277.984
 10
168.528
 20
283.7
 10
185.672
 20
283.7
 10
191.384
 20
277.984
 10
185.672
 20
275.128
 10
182.816
 20
277.984
 10
171.384
 20
277.984
 10
168.528
 20
275.128
 10
168.528
 20
269.416
 10
171.384
 20
266.556
 10
185.672
 20
266.556
 10
191.384
 20
260.844
 10
191.384
 20
249.416
 10
185.672
 20
243.7
 10
168.528
 20
243.7
 10
162.816
 20
249.416
 10
168.528
 20
252.272
 10
171.384
 20
249.416
 10
182.816
 20
249.416
 10
185.672
 20
252.272
 10
185.672
 20
257.984
 10
182.816
 20
260.844
 10
168.528
 20
260.844
 10
162.816
 20
266.556
 10
162.816
 20
277.984
  0
LWPOLYLINE
  5
64
330
1F
100
AcDbEntity
  8
text2
100
AcDbPolyline
 90
       25
 70
     1
 43
0.0
 10
122.816
 20
277.984
 10
128.528
 20
283.7
 10
145.672
 20
283.7
 10
151.384
 20
277.984
 10
145.672
 20
275.128
 10
142.816
 20
277.984
 10
131.384
 20
277.984
 10
128.528
 20
275.128
 10
128.528
 20
269.416
 10
131.384
 20
266.556
 10
145.672
 20
266.556
 10
151.384
 20
260.844
 10
151.384
 20
249.416
 10
145.672
 20
243.7
 10
128.528
 20
243.7
 10
122.816
 20
249.416
 10
128.528
 20
252.272
 10
131.384
 20
249.416
 10
142.816
 20
249.416
 10
145.672
 20
252.272
 10
145.672
 20
257.984
 10
142.816
 20
260.844
 10
128.528
 20
260.844
 10
122.816
 20
266.556
 10
122.816
 20
277.984
  0
LWPOLYLINE
  5
65
330
1F
100
AcDbEntity
  8
text2
100
AcDbPolyline
 90
       17
 70
     1
 43
0.0
 10
85.672
 20
260.844
 10
91.384
 20
266.556
 10
99.956
 20
266.556
 10
102.816
 20
263.7
 10
102.816
 20
266.556
 10
108.528
 20
266.556
 10
108.528
 20
237.984
 10
102.816
 20
232.272
 10
85.672
 20
232.272
 10
85.672
 20
237.984
 10
99.956
 20
237.984
 10
102.816
 20
240.843
 10
102.816
 20
246.557
 10
99.956
 20
243.7
 10
91.384
 20
243.7
 10
85.672
 20
249.416
 10
85.672
 20
260.844
  0
LWPOLYLINE
  5
66
330
1F
100
AcDbEntity
  8
text2
100
AcDbPolyline
 90
        4
 70
     1
 43
0.0
 10
-193.0
 20
107.0
 10
-193.0
 20
1093.0
 10
1093.0
 20
1093.0
 10
1093.0
 20
107.0
  0
LWPOLYLINE
  5
67
330
1F
100
AcDbEntity
  8
text2
100
AcDbPolyline
 90
       28
 70
     1
 43
0.0
 10
-19.0
 20
542.5
 10
-27.5
 20
542.5
 10
-27.5
 20
542.4
 10
-86.5
 20
542.4
 10
-86.5
 20
622.6
 10
-85.7
 20
627.6
 10
-83.0
 20
632.9
 10
-78.8
 20
637.2
 10
-73.4
 20
639.9
 10
-67.489
 20
640.8000000000001
 10
-61.6
 20
639.9
 10
-56.2
 20
637.2
 10
-52.0
 20
632.9
 10
-49.3
 20
627.6
 10
-48.5
 20
622.6
 10
-48.5
 20
615.7
 10
-26.5
 20
580.5
 10
-19.0
 20
580.5
 10
-14.0
 20
579.7
 10
-8.700000000000001
 20
577.0
 10
-4.4
 20
572.8000000000001
 10
-1.7
 20
567.4
 10
-0.8
 20
561.5
 10
-1.7
 20
555.6
 10
-4.4
 20
550.2
 10
-8.700000000000001
 20
546.0
 10
-14.0
 20
543.3
 10
-19.0
 20
542.5
  0
LWPOLYLINE
  5
68
330
1F
100
AcDbEntity
  8
text2
100
AcDbPolyline
 90
        4
 70
     1
 43
0.0
 10
-86.5
 20
443.5
 10
-86.5
 20
506.5
 10
-14.3
 20
506.5
 10
-14.3
 20
443.5
  0
LWPOLYLINE
  5
69
330
1F
100
AcDbEntity
  8
text2
100
AcDbPolyline
 90
       28
 70
     1
 43
0.0
 10
-19.0
 20
369.5
 10
-26.0
 20
369.5
 10
-48.5
 20
334.3
 10
-48.5
 20
327.4
 10
-49.3
 20
322.4
 10
-52.0
 20
317.1
 10
-56.2
 20
312.8
 10
-61.6
 20
310.1
 10
-67.5
 20
309.2
 10
-73.4
 20
310.1
 10
-78.8
 20
312.8
 10
-83.0
 20
317.1
 10
-85.7
 20
322.4
 10
-86.5
 20
327.4
 10
-86.5
 20
407.6
 10
-26.0
 20
407.6
 10
-26.0
 20
407.5
 10
-19.0
 20
407.5
 10
-14.0
 20
406.7
 10
-8.700000000000001
 20
404.0
 10
-4.4
 20
399.8
 10
-1.7
 20
394.4
 10
-0.8
 20
388.5
 10
-1.7
 20
382.6
 10
-4.4
 20
377.2
 10
-8.700000000000001
 20
373.0
 10
-14.0
 20
370.3
 10
-19.0
 20
369.5
  0
LWPOLYLINE
  5
6A
330
1F
100
AcDbEntity
  8
text2
100
AcDbPolyline
 90
       28
 70
     1
 43
0.0
 10
675.6
 20
298.3
 10
681.5
 20
299.2
 10
687.4
 20
298.3
 10
692.8000000000001
 20
295.6
 10
697.0
 20
291.3
 10
699.7
 20
286.0
 10
700.5
 20
281.0
 10
700.5
 20
274.0
 10
735.7
 20
251.5
 10
742.6
 20
251.5
 10
747.6
 20
250.7
 10
752.9
 20
248.0
 10
757.2
 20
243.8
 10
759.9
 20
238.4
 10
760.8000000000001
 20
232.5
 10
759.9
 20
226.6
 10
757.2
 20
221.2
 10
752.9
 20
217.0
 10
747.6
 20
214.3
 10
742.6
 20
213.5
 10
662.4
 20
213.5
 10
662.4
 20
274.0
 10
662.5
 20
274.0
 10
662.5
 20
281.0
 10
663.3000000000001
 20
286.0
 10
666.0
 20
291.3
 10
670.2
 20
295.6
 10
675.6
 20
298.3
  0
LWPOLYLINE
  5
6B
330
1F
100
AcDbEntity
  8
text2
100
AcDbPolyline
 90
        4
 70
     1
 43
0.0
 10
563.5
 20
213.5
 10
563.5
 20
285.7
 10
626.5
 20
285.7
 10
626.5
 20
213.5
  0
LWPOLYLINE
  5
6C
330
1F
100
AcDbEntity
  8
text2
100
AcDbPolyline
 90
       28
 70
     1
 43
0.0
 10
502.6
 20
298.3
 10
508.5
 20
299.2
 10
514.4
 20
298.3
 10
519.8
 20
295.6
 10
524.0
 20
291.3
 10
526.7
 20
286.0
 10
527.5
 20
281.0
 10
527.5
 20
272.5
 10
527.6
 20
272.5
 10
527.6
 20
213.5
 10
447.4
 20
213.5
 10
442.4
 20
214.3
 10
437.1
 20
217.0
 10
432.8
 20
221.2
 10
430.1
 20
226.6
 10
429.2
 20
232.511
 10
430.1
 20
238.4
 10
432.8
 20
243.8
 10
437.1
 20
248.0
 10
442.4
 20
250.7
 10
447.4
 20
251.5
 10
454.3
 20
251.5
 10
489.5
 20
273.5
 10
489.5
 20
281.0
 10
490.3
 20
286.0
 10
493.0
 20
291.3
 10
497.2
 20
295.6
 10
502.6
 20
298.3
  0
LWPOLYLINE
  5
6D
330
1F
100
AcDbEntity
  8
text2
100
AcDbPolyline
 90
       28
 70
     1
 43
0.0
 10
961.6
 20
889.9
 10
967.5
 20
890.8000000000001
 10
973.4
 20
889.9
 10
978.8000000000001
 20
887.2
 10
983.0
 20
882.9
 10
985.7
 20
877.6
 10
986.5
 20
872.6
 10
986.5
 20
792.4
 10
926.0
 20
792.4
 10
926.0
 20
792.5
 10
919.0
 20
792.5
 10
914.0
 20
793.3000000000001
 10
908.7
 20
796.0
 10
904.4
 20
800.2
 10
901.7
 20
805.6
 10
900.8000000000001
 20
811.5
 10
901.7
 20
817.4
 10
904.4
 20
822.8000000000001
 10
908.7
 20
827.0
 10
914.0
 20
829.7
 10
919.0
 20
830.5
 10
926.0
 20
830.5
 10
948.5
 20
865.7
 10
948.5
 20
872.6
 10
949.3000000000001
 20
877.6
 10
952.0
 20
882.9
 10
956.2
 20
887.2
 10
961.6
 20
889.9
  0
LWPOLYLINE
  5
6E
330
1F
100
AcDbEntity
  8
text2
100
AcDbPolyline
 90
        4
 70
     1
 43
0.0
 10
914.3000000000001
 20
693.5
 10
914.3000000000001
 20
756.5
 10
986.5
 20
756.5
 10
986.5
 20
693.5
  0
LWPOLYLINE
  5
6F
330
1F
100
AcDbEntity
  8
text2
100
AcDbPolyline
 90
       28
 70
     1
 43
0.0
 10
927.5
 20
657.5
 10
927.5
 20
657.6
 10
986.5
 20
657.6
 10
986.5
 20
577.4
 10
985.7
 20
572.4
 10
983.0
 20
567.1
 10
978.8000000000001
 20
562.8000000000001
 10
973.4
 20
560.1
 10
967.489
 20
559.2
 10
961.6
 20
560.1
 10
956.2
 20
562.8000000000001
 10
952.0
 20
567.1
 10
949.3000000000001
 20
572.4
 10
948.5
 20
577.4
 10
948.5
 20
584.3000000000001
 10
926.5
 20
619.5
 10
919.0
 20
619.5
 10
914.0
 20
620.3000000000001
 10
908.7
 20
623.0
 10
904.4
 20
627.2
 10
901.7
 20
632.6
 10
900.8000000000001
 20
638.5
 10
901.7
 20
644.4
 10
904.4
 20
649.8000000000001
 10
908.7
 20
654.0
 10
914.0
 20
656.7
 10
919.0
 20
657.5
 10
927.5
 20
657.5
  0
LWPOLYLINE
  5
70
330
1F
100
AcDbEntity
  8
text2
100
AcDbPolyline
 90
       28
 70
     1
 43
0.0
 10
742.6
 20
948.5
 10
735.7
 20
948.5
 10
700.5
 20
926.5
 10
700.5
 20
919.0
 10
699.7
 20
914.0
 10
697.0
 20
908.7
 10
692.8000000000001
 20
904.4
 10
687.4
 20
901.7
 10
681.5
 20
900.8000000000001
 10
675.6
 20
901.7
 10
670.2
 20
904.4
 10
666.0
 20
908.7
 10
663.3000000000001
 20
914.0
 10
662.5
 20
919.0
 10
662.5
 20
927.5
 10
662.4
 20
927.5
 10
662.4
 20
986.5
 10
742.6
 20
986.5
 10
747.6
 20
985.7
 10
752.9
 20
983.0
 10
757.2
 20
978.8000000000001
 10
759.9
 20
973.4
 10
760.8000000000001
 20
967.489
 10
759.9
 20
961.6
 10
757.2
 20
956.2
 10
752.9
 20
952.0
 10
747.6
 20
949.3000000000001
 10
742.6
 20
948.5
  0
LWPOLYLINE
  5
71
330
1F
100
AcDbEntity
  8
text2
100
AcDbPolyline
 90
        4
 70
     1
 43
0.0
 10
563.5
 20
914.3000000000001
 10
563.5
 20
986.5
 10
626.5
 20
986.5
 10
626.5
 20
914.3000000000001
  0
LWPOLYLINE
  5
72
330
1F
100
AcDbEntity
  8
text2
100
AcDbPolyline
 90
       28
 70
     1
 43
0.0
 10
527.6
 20
926.0
 10
527.5
 20
926.0
 10
527.5
 20
919.0
 10
526.7
 20
914.0
 10
524.0
 20
908.7
 10
519.8
 20
904.4
 10
514.4
 20
901.7
 10
508.5
 20
900.8000000000001
 10
502.6
 20
901.7
 10
497.2
 20
904.4
 10
493.0
 20
908.7
 10
490.3
 20
914.0
 10
489.5
 20
919.0
 10
489.5
 20
926.0
 10
454.3
 20
948.5
 10
447.4
 20
948.5
 10
442.4
 20
949.3000000000001
 10
437.1
 20
952.0
 10
432.8
 20
956.2
 10
430.1
 20
961.6
 10
429.2
 20
967.5
 10
430.1
 20
973.4
 10
432.8
 20
978.8000000000001
 10
437.1
 20
983.0
 10
442.4
 20
985.7
 10
447.4
 20
986.5
 10
527.6
 20
986.5
 10
527.6
 20
926.0
  0
LWPOLYLINE
  5
73
330
1F
100
AcDbEntity
  8
text2
100
AcDbPolyline
 90
       95
 70
     1
 43
0.0
 10
148.6
 20
949.0
 10
144.6
 20
948.2
 10
142.2
 20
947.4
 10
142.6
 20
947.4
 10
144.2
 20
947.8000000000001
 10
146.2
 20
947.8000000000001
 10
147.8
 20
948.2
 10
149.4
 20
948.2
 10
151.0
 20
947.8000000000001
 10
152.6
 20
947.8000000000001
 10
154.2
 20
947.4
 10
155.4
 20
947.0
 10
157.0
 20
946.2
 10
158.2
 20
945.8000000000001
 10
159.8
 20
945.0
 10
162.2
 20
943.4
 10
165.8
 20
939.8000000000001
 10
167.4
 20
937.4
 10
168.2
 20
935.8000000000001
 10
169.0
 20
934.6
 10
169.8
 20
933.0
 10
169.8
 20
931.8000000000001
 10
162.6
 20
931.0
 10
159.4
 20
930.2
 10
155.8
 20
929.4
 10
152.6
 20
928.6
 10
149.4
 20
927.4
 10
146.2
 20
926.6
 10
143.4
 20
925.4
 10
140.6
 20
923.8000000000001
 10
137.8
 20
922.6
 10
135.4
 20
921.0
 10
137.4
 20
921.8000000000001
 10
139.8
 20
923.0
 10
142.2
 20
923.8000000000001
 10
144.2
 20
924.6
 10
146.6
 20
925.0
 10
149.4
 20
925.8000000000001
 10
151.8
 20
926.2
 10
157.4
 20
927.0
 10
160.2
 20
927.0
 10
163.0
 20
927.4
 10
168.6
 20
927.8000000000001
 10
170.6
 20
927.8000000000001
 10
170.2
 20
927.0
 10
169.0
 20
921.8000000000001
 10
168.6
 20
916.6
 10
168.6
 20
911.0
 10
169.0
 20
907.8000000000001
 10
166.6
 20
909.0
 10
164.6
 20
909.4
 10
163.0
 20
910.2
 10
161.0
 20
910.2
 10
159.4
 20
910.6
 10
157.4
 20
910.6
 10
155.4
 20
910.2
 10
153.8
 20
910.2
 10
151.8
 20
909.4
 10
150.2
 20
909.0
 10
148.2
 20
908.2
 10
146.6
 20
907.4
 10
144.6
 20
906.2
 10
143.0
 20
905.4
 10
141.0
 20
904.2
 10
138.2
 20
901.4
 10
139.4
 20
902.2
 10
141.0
 20
903.4
 10
142.6
 20
904.2
 10
143.8
 20
905.0
 10
147.0
 20
905.8000000000001
 10
148.2
 20
906.2
 10
149.8
 20
906.6
 10
151.4
 20
906.6
 10
153.0
 20
907.0
 10
154.6
 20
906.6
 10
155.8
 20
906.6
 10
157.4
 20
906.2
 10
159.0
 20
906.2
 10
160.6
 20
905.8000000000001
 10
161.8
 20
905.4
 10
164.2
 20
903.8000000000001
 10
165.4
 20
903.4
 10
166.6
 20
902.2
 10
169.0
 20
900.6
 10
169.8
 20
899.4
 10
170.8
 20
898.4
 10
170.8
 20
942.0
 10
168.6
 20
944.2
 10
167.4
 20
945.0
 10
165.8
 20
946.2
 10
163.8
 20
947.0
 10
162.2
 20
947.8000000000001
 10
160.6
 20
948.2
 10
156.6
 20
949.0
 10
148.6
 20
949.0
  0
LWPOLYLINE
  5
74
330
1F
100
AcDbEntity
  8
text2
100
AcDbPolyline
 90
      142
 70
     1
 43
0.0
 10
202.6
 20
957.0
 10
200.2
 20
956.6
 10
193.0
 20
954.2
 10
188.2
 20
951.8000000000001
 10
185.8
 20
950.2
 10
183.8
 20
948.6
 10
180.2
 20
945.4
 10
177.0
 20
941.0
 10
174.6
 20
937.4
 10
173.8
 20
938.2
 10
173.0
 20
939.8000000000001
 10
170.8
 20
942.0
 10
170.8
 20
898.4
 10
171.0
 20
898.2
 10
171.8
 20
897.0
 10
172.2
 20
896.6
 10
172.6
 20
895.4
 10
175.0
 20
890.6
 10
177.8
 20
887.0
 10
179.4
 20
884.6
 10
183.4
 20
880.6
 10
184.2
 20
880.2
 10
175.8
 20
880.2
 10
172.6
 20
880.6
 10
170.8
 20
880.8000000000001
 10
170.8
 20
877.0
 10
173.4
 20
877.0
 10
185.4
 20
878.2
 10
186.2
 20
878.6
 10
187.8
 20
877.4
 10
189.8
 20
875.8000000000001
 10
192.2
 20
875.0
 10
194.6
 20
873.8000000000001
 10
199.4
 20
872.2
 10
202.2
 20
871.8000000000001
 10
204.6
 20
871.8000000000001
 10
200.6
 20
872.6
 10
196.6
 20
874.2
 10
195.0
 20
875.0
 10
193.4
 20
876.2
 10
191.0
 20
878.6
 10
190.6
 20
879.4
 10
192.6
 20
879.8000000000001
 10
195.8
 20
881.0
 10
199.0
 20
881.8000000000001
 10
201.8
 20
883.0
 10
199.4
 20
882.2
 10
196.6
 20
881.4
 10
191.0
 20
880.6
 10
190.2
 20
880.6
 10
189.8
 20
881.0
 10
188.6
 20
884.2
 10
188.2
 20
887.4
 10
187.8
 20
891.0
 10
188.2
 20
895.0
 10
189.0
 20
899.0
 10
190.2
 20
903.0
 10
191.8
 20
907.0
 10
193.8
 20
911.0
 10
196.2
 20
915.0
 10
198.6
 20
918.6
 10
200.6
 20
921.0
 10
201.4
 20
920.2
 10
205.4
 20
917.8000000000001
 10
208.6
 20
915.0
 10
211.4
 20
911.8000000000001
 10
213.4
 20
908.6
 10
214.6
 20
905.0
 10
215.0
 20
902.2
 10
215.0
 20
900.6
 10
214.6
 20
898.6
 10
214.6
 20
897.0
 10
214.2
 20
895.8000000000001
 10
212.6
 20
892.6
 10
211.8
 20
891.4
 10
211.0
 20
889.8000000000001
 10
209.8
 20
888.6
 10
208.2
 20
887.4
 10
206.6
 20
885.8000000000001
 10
205.0
 20
884.6
 10
207.4
 20
886.2
 10
209.4
 20
887.4
 10
211.4
 20
889.4
 10
213.4
 20
891.0
 10
215.0
 20
892.6
 10
218.2
 20
896.6
 10
219.4
 20
898.2
 10
221.0
 20
902.2
 10
221.4
 20
904.2
 10
221.4
 20
906.2
 10
221.0
 20
909.4
 10
219.8
 20
913.0
 10
217.8
 20
916.2
 10
215.4
 20
919.4
 10
211.8
 20
922.2
 10
208.2
 20
924.6
 10
205.8
 20
925.8000000000001
 10
209.0
 20
928.2
 10
211.4
 20
929.8000000000001
 10
213.4
 20
931.0
 10
215.4
 20
931.8000000000001
 10
217.4
 20
933.0
 10
219.0
 20
933.8000000000001
 10
221.0
 20
934.2
 10
223.0
 20
935.0
 10
225.0
 20
935.4
 10
227.0
 20
936.2
 10
228.6
 20
936.6
 10
230.6
 20
936.6
 10
232.6
 20
937.0
 10
237.8
 20
937.0
 10
235.8
 20
937.4
 10
224.6
 20
937.4
 10
219.8
 20
936.6
 10
217.0
 20
935.8000000000001
 10
214.6
 20
935.4
 10
212.2
 20
934.6
 10
209.8
 20
933.4
 10
207.4
 20
932.6
 10
205.4
 20
931.4
 10
202.6
 20
929.8000000000001
 10
200.2
 20
928.2
 10
198.6
 20
928.6
 10
193.4
 20
930.2
 10
187.4
 20
931.4
 10
181.8
 20
931.8000000000001
 10
182.2
 20
933.8000000000001
 10
186.2
 20
942.6
 10
188.6
 20
945.8000000000001
 10
192.2
 20
949.4
 10
193.8
 20
950.6
 10
195.0
 20
951.4
 10
196.6
 20
952.6
 10
198.2
 20
953.4
 10
202.2
 20
955.0
 10
204.2
 20
955.4
 10
206.2
 20
956.2
 10
208.2
 20
956.2
 10
210.6
 20
956.6
 10
213.0
 20
956.6
 10
210.2
 20
957.0
 10
202.6
 20
957.0
  0
LWPOLYLINE
  5
75
330
1F
100
AcDbEntity
  8
text2
100
AcDbPolyline
 90
       51
 70
     1
 43
0.0
 10
129.0
 20
943.4
 10
125.8
 20
942.2
 10
120.2
 20
939.8000000000001
 10
117.4
 20
938.2
 10
115.0
 20
936.2
 10
112.6
 20
934.6
 10
108.6
 20
930.6
 10
107.0
 20
928.6
 10
105.8
 20
926.2
 10
105.0
 20
924.2
 10
104.2
 20
921.8000000000001
 10
103.8
 20
917.8000000000001
 10
104.2
 20
913.4
 10
105.8
 20
909.0
 10
107.8
 20
904.6
 10
111.0
 20
900.2
 10
114.6
 20
896.2
 10
119.4
 20
892.6
 10
124.6
 20
889.0
 10
130.2
 20
885.8000000000001
 10
136.6
 20
883.4
 10
143.4
 20
881.0
 10
150.6
 20
879.0
 10
157.0
 20
877.8000000000001
 10
161.4
 20
877.4
 10
165.4
 20
877.0
 10
170.8
 20
877.0
 10
170.8
 20
880.8000000000001
 10
169.0
 20
881.0
 10
165.8
 20
881.4
 10
159.4
 20
882.6
 10
152.2
 20
884.2
 10
145.4
 20
886.6
 10
139.0
 20
889.4
 10
133.4
 20
892.6
 10
128.2
 20
896.2
 10
123.4
 20
899.8000000000001
 10
119.8
 20
903.8000000000001
 10
116.6
 20
908.2
 10
114.2
 20
912.2
 10
113.0
 20
917.0
 10
112.6
 20
921.4
 10
113.0
 20
925.0
 10
113.8
 20
929.0
 10
114.6
 20
931.0
 10
115.4
 20
932.6
 10
119.0
 20
937.4
 10
120.6
 20
938.6
 10
122.6
 20
939.8000000000001
 10
124.2
 20
941.0
 10
129.0
 20
943.4
  0
LWPOLYLINE
  5
76
330
1F
100
AcDbEntity
  8
text2
100
AcDbPolyline
 90
       74
 70
     1
 43
0.0
 10
244.2
 20
942.2
 10
241.0
 20
944.6
 10
245.0
 20
942.2
 10
249.4
 20
939.8000000000001
 10
253.0
 20
937.4
 10
256.6
 20
934.6
 10
260.2
 20
931.8000000000001
 10
263.0
 20
928.6
 10
265.8
 20
925.4
 10
268.2
 20
922.6
 10
269.8
 20
919.0
 10
271.4
 20
915.8000000000001
 10
272.2
 20
912.2
 10
272.6
 20
909.0
 10
272.6
 20
903.4
 10
270.6
 20
897.0
 10
267.4
 20
891.0
 10
263.0
 20
885.4
 10
257.4
 20
880.2
 10
250.6
 20
875.0
 10
242.6
 20
871.0
 10
233.8
 20
867.0
 10
224.2
 20
863.8000000000001
 10
213.8
 20
861.4
 10
203.0
 20
859.8000000000001
 10
191.4
 20
858.6
 10
181.4
 20
858.6
 10
175.0
 20
859.0
 10
168.6
 20
859.4
 10
162.2
 20
859.8000000000001
 10
156.2
 20
861.0
 10
150.2
 20
862.2
 10
144.2
 20
863.4
 10
138.6
 20
865.0
 10
133.4
 20
866.6
 10
128.2
 20
868.6
 10
123.4
 20
870.6
 10
118.6
 20
873.0
 10
114.6
 20
875.0
 10
118.6
 20
873.4
 10
122.2
 20
871.8000000000001
 10
126.2
 20
870.2
 10
130.6
 20
868.6
 10
134.6
 20
867.4
 10
139.0
 20
866.6
 10
143.8
 20
865.4
 10
148.2
 20
864.6
 10
153.0
 20
864.2
 10
158.2
 20
863.8000000000001
 10
163.4
 20
863.4
 10
178.6
 20
863.4
 10
190.2
 20
864.6
 10
201.0
 20
866.2
 10
211.4
 20
868.6
 10
221.0
 20
871.8000000000001
 10
229.8
 20
875.8000000000001
 10
237.8
 20
879.8000000000001
 10
244.6
 20
884.6
 10
250.2
 20
890.2
 10
254.6
 20
895.8000000000001
 10
257.8
 20
901.8000000000001
 10
259.8
 20
908.2
 10
260.2
 20
913.4
 10
259.8
 20
916.6
 10
259.4
 20
919.4
 10
259.0
 20
922.2
 10
258.2
 20
925.0
 10
257.0
 20
927.8000000000001
 10
255.4
 20
930.6
 10
253.8
 20
933.0
 10
251.8
 20
935.4
 10
249.8
 20
937.8000000000001
 10
247.0
 20
940.2
 10
244.2
 20
942.2
  0
MTEXT
  5
77
330
1F
100
AcDbEntity
  8
text2
100
AcDbMText
 10
-297.0
 20
551.0
 30
0.0
 40
30.0
 41
0.0
 71
     7
 72
     1
  1
GND
 73
     1
 44
1.0
  0
MTEXT
  5
78
330
1F
100
AcDbEntity
  8
text2
100
AcDbMText
 10
-297.0
 20
366.0
 30
0.0
 40
30.0
 41
0.0
 71
     7
 72
     1
  1
GND
 73
     1
 44
1.0
  0
MTEXT
  5
79
330
1F
100
AcDbEntity
  8
text2
100
AcDbMText
 10
519.0
 20
3.0
 30
0.0
 40
30.0
 41
0.0
 71
     7
 72
     1
  1
GND
 11
-1.608122649676637E-16
 21
1.0
 31
0.0
 73
     1
 44
1.0
  0
MTEXT
  5
7A
330
1F
100
AcDbEntity
  8
text2
100
AcDbMText
 10
704.0
 20
3.0
 30
0.0
 40
30.0
 41
0.0
 71
     7
 72
     1
  1
GND
 11
-1.608122649676637E-16
 21
1.0
 31
0.0
 73
     1
 44
1.0
  0
MTEXT
  5
7B
330
1F
100
AcDbEntity
  8
text2
100
AcDbMText
 10
1146.0
 20
795.0
 30
0.0
 40
30.0
 41
0.0
 71
     7
 72
     1
  1
GND
 73
     1
 44
1.0
  0
MTEXT
  5
7C
330
1F
100
AcDbEntity
  8
text2
100
AcDbMText
 10
1146.0
 20
610.0
 30
0.0
 40
30.0
 41
0.0
 71
     7
 72
     1
  1
GND
 73
     1
 44
1.0
  0
MTEXT
  5
7D
330
1F
100
AcDbEntity
  8
text2
100
AcDbMText
 10
708.0
 20
1146.0
 30
0.0
 40
30.0
 41
0.0
 71
     7
 72
     1
  1
GND
 11
-1.608122649676637E-16
 21
1.0
 31
0.0
 73
     1
 44
1.0
  0
MTEXT
  5
7E
330
1F
100
AcDbEntity
  8
text2
100
AcDbMText
 10
523.0
 20
1146.0
 30
0.0
 40
30.0
 41
0.0
 71
     7
 72
     1
  1
GND
 11
-1.608122649676637E-16
 21
1.0
 31
0.0
 73
     1
 44
1.0
  0
MTEXT
  5
7F
330
1F
100
AcDbEntity
  8
text2
100
AcDbMText
 10
612.0
 20
1145.0
 30
0.0
 40
30.0
 41
0.0
 71
     7
 72
     1
  1
V_ctrl
 11
-1.608122649676637E-16
 21
1.0
 31
0.0
 73
     1
 44
1.0
  0
MTEXT
  5
80
330
1F
100
AcDbEntity
  8
text2
100
AcDbMText
 10
608.0
 20
2.0
 30
0.0
 40
30.0
 41
0.0
 71
     7
 72
     1
  1
V_ctrl
 11
-1.608122649676637E-16
 21
1.0
 31
0.0
 73
     1
 44
1.0
  0
MTEXT
  5
81
330
1F
100
AcDbEntity
  8
text2
100
AcDbMText
 10
-298.0
 20
462.0
 30
0.0
 40
30.0
 41
0.0
 71
     7
 72
     1
  1
RF in
 73
     1
 44
1.0
  0
MTEXT
  5
82
330
1F
100
AcDbEntity
  8
text2
100
AcDbMText
 10
1145.0
 20
706.0
 30
0.0
 40
30.0
 41
0.0
 71
     7
 72
     1
  1
RF in
 73
     1
 44
1.0
  0
ENDSEC
  0
SECTION
  2
OBJECTS
  0
DICTIONARY
  5
C
330
0
100
AcDbDictionary
281
     1
  3
ACAD_GROUP
350
D
  3
ACAD_LAYOUT
350
1A
  3
ACAD_MLEADERSTYLE
350
84
  3
ACAD_MLINESTYLE
350
17
  3
ACAD_PLOTSETTINGS
350
19
  3
ACAD_PLOTSTYLENAME
350
E
  3
ACAD_SCALELIST
350
3B
  3
ACAD_TABLESTYLE
350
83
  3
ACAD_VISUALSTYLE
350
2A
  0
DICTIONARY
  5
D
102
{ACAD_REACTORS
330
C
102
}
330
C
100
AcDbDictionary
281
     1
  0
DICTIONARY
  5
1A
102
{ACAD_REACTORS
330
C
102
}
330
C
100
AcDbDictionary
281
     1
  3
Layout1
350
1E
  3
Layout2
350
26
  3
Model
350
22
  0
DICTIONARY
  5
84
102
{ACAD_REACTORS
330
C
102
}
330
C
100
AcDbDictionary
281
     1
  0
DICTIONARY
  5
17
102
{ACAD_REACTORS
330
C
102
}
330
C
100
AcDbDictionary
281
     1
  3
Standard
350
18
  0
DICTIONARY
  5
19
102
{ACAD_REACTORS
330
C
102
}
330
C
100
AcDbDictionary
281
     1
  0
ACDBDICTIONARYWDFLT
  5
E
102
{ACAD_REACTORS
330
C
102
}
330
C
100
AcDbDictionary
281
     1
  3
Normal
350
F
100
AcDbDictionaryWithDefault
340
F
  0
DICTIONARY
  5
3B
102
{ACAD_REACTORS
330
C
102
}
330
C
100
AcDbDictionary
281
     1
  3
A0
350
3C
  3
A1
350
3D
  3
A2
350
3E
  3
A3
350
3F
  3
A4
350
40
  3
A5
350
41
  3
A6
350
42
  3
A7
350
43
  3
A8
350
44
  3
A9
350
45
  3
B0
350
46
  3
B1
350
47
  3
B2
350
48
  3
B3
350
49
  3
B4
350
4A
  3
B5
350
4B
  3
B6
350
4C
  3
B7
350
4D
  3
B8
350
4E
  3
B9
350
4F
  3
C0
350
50
  3
C1
350
51
  3
C2
350
52
  3
C3
350
53
  3
C4
350
54
  3
C5
350
55
  3
C6
350
56
  3
C7
350
57
  3
C8
350
58
  3
C9
350
59
  3
D0
350
5A
  3
D1
350
5B
  3
D2
350
5C
  0
DICTIONARY
  5
83
102
{ACAD_REACTORS
330
C
102
}
330
C
100
AcDbDictionary
281
     1
  0
DICTIONARY
  5
2A
102
{ACAD_REACTORS
330
C
102
}
330
C
100
AcDbDictionary
281
     1
  3
2dWireframe
350
2F
  3
3D Hidden
350
31
  3
3dWireframe
350
30
  3
Basic
350
32
  3
Brighten
350
36
  3
ColorChange
350
3A
  3
Conceptual
350
34
  3
Dim
350
35
  3
Facepattern
350
39
  3
Flat
350
2B
  3
FlatWithEdges
350
2C
  3
Gouraud
350
2D
  3
GouraudWithEdges
350
2E
  3
Linepattern
350
38
  3
Realistic
350
33
  3
Thicken
350
37
  0
LAYOUT
  5
1E
102
{ACAD_REACTORS
330
1A
102
}
330
1A
100
AcDbPlotSettings
  1

  2
none_device
  4

  6

 40
0.0
 41
0.0
 42
0.0
 43
0.0
 44
0.0
 45
0.0
 46
0.0
 47
0.0
 48
0.0
 49
0.0
140
0.0
141
0.0
142
1.0
143
1.0
 70
   688
 72
     0
 73
     0
 74
     5
  7

 75
    16
 76
     0
 77
     2
 78
   300
147
1.0
148
0.0
149
0.0
100
AcDbLayout
  1
Layout1
 70
     1
 71
     1
 10
0.0
 20
0.0
 11
12.0
 21
9.0
 12
0.0
 22
0.0
 32
0.0
 14
1.000000000000000E+20
 24
1.000000000000000E+20
 34
1.000000000000000E+20
 15
-1.000000000000000E+20
 25
-1.000000000000000E+20
 35
-1.000000000000000E+20
146
0.0
 13
0.0
 23
0.0
 33
0.0
 16
1.0
 26
0.0
 36
0.0
 17
0.0
 27
1.0
 37
0.0
 76
     0
330
1B
  0
LAYOUT
  5
26
102
{ACAD_REACTORS
330
1A
102
}
330
1A
100
AcDbPlotSettings
  1

  2
none_device
  4

  6

 40
0.0
 41
0.0
 42
0.0
 43
0.0
 44
0.0
 45
0.0
 46
0.0
 47
0.0
 48
0.0
 49
0.0
140
0.0
141
0.0
142
1.0
143
1.0
 70
   688
 72
     0
 73
     0
 74
     5
  7

 75
    16
 76
     0
 77
     2
 78
   300
147
1.0
148
0.0
149
0.0
100
AcDbLayout
  1
Layout2
 70
     1
 71
     2
 10
0.0
 20
0.0
 11
0.0
 21
0.0
 12
0.0
 22
0.0
 32
0.0
 14
0.0
 24
0.0
 34
0.0
 15
0.0
 25
0.0
 35
0.0
146
0.0
 13
0.0
 23
0.0
 33
0.0
 16
1.0
 26
0.0
 36
0.0
 17
0.0
 27
1.0
 37
0.0
 76
     0
330
23
  0
LAYOUT
  5
22
102
{ACAD_REACTORS
330
1A
102
}
330
1A
100
AcDbPlotSettings
  1

  2
none_device
  4

  6

 40
0.0
 41
0.0
 42
0.0
 43
0.0
 44
0.0
 45
0.0
 46
0.0
 47
0.0
 48
0.0
 49
0.0
140
0.0
141
0.0
142
1.0
143
1.0
 70
  1712
 72
     0
 73
     0
 74
     0
  7

 75
     0
 76
     0
 77
     2
 78
   300
147
1.0
148
0.0
149
0.0
100
AcDbLayout
  1
Model
 70
     1
 71
     0
 10
0.0
 20
0.0
 11
12.0
 21
9.0
 12
0.0
 22
0.0
 32
0.0
 14
1.000000000000000E+20
 24
1.000000000000000E+20
 34
1.000000000000000E+20
 15
-1.000000000000000E+20
 25
-1.000000000000000E+20
 35
-1.000000000000000E+20
146
0.0
 13
0.0
 23
0.0
 33
0.0
 16
1.0
 26
0.0
 36
0.0
 17
0.0
 27
1.0
 37
0.0
 76
     0
330
1F
331
29
  0
MLINESTYLE
  5
18
102
{ACAD_REACTORS
330
17
102
}
330
17
100
AcDbMlineStyle
  2
Standard
 70
     0
  3

 62
   256
 51
90.0
 52
90.0
 71
     2
 49
0.5
 62
   256
  6
BYLAYER
 49
-0.5
 62
   256
  6
BYLAYER
  0
ACDBPLACEHOLDER
  5
F
102
{ACAD_REACTORS
330
E
102
}
330
E
  0
SCALE
  5
3C
102
{ACAD_REACTORS
330
3B
102
}
330
3B
100
AcDbScale
 70
     0
300
1:1
140
1.0
141
1.0
290
     1
  0
SCALE
  5
3D
102
{ACAD_REACTORS
330
3B
102
}
330
3B
100
AcDbScale
 70
     0
300
1:2
140
1.0
141
2.0
290
     0
  0
SCALE
  5
3E
102
{ACAD_REACTORS
330
3B
102
}
330
3B
100
AcDbScale
 70
     0
300
1:4
140
1.0
141
4.0
290
     0
  0
SCALE
  5
3F
102
{ACAD_REACTORS
330
3B
102
}
330
3B
100
AcDbScale
 70
     0
300
1:5
140
1.0
141
5.0
290
     0
  0
SCALE
  5
40
102
{ACAD_REACTORS
330
3B
102
}
330
3B
100
AcDbScale
 70
     0
300
1:8
140
1.0
141
8.0
290
     0
  0
SCALE
  5
41
102
{ACAD_REACTORS
330
3B
102
}
330
3B
100
AcDbScale
 70
     0
300
1:10
140
1.0
141
10.0
290
     0
  0
SCALE
  5
42
102
{ACAD_REACTORS
330
3B
102
}
330
3B
100
AcDbScale
 70
     0
300
1:16
140
1.0
141
16.0
290
     0
  0
SCALE
  5
43
102
{ACAD_REACTORS
330
3B
102
}
330
3B
100
AcDbScale
 70
     0
300
1:20
140
1.0
141
20.0
290
     0
  0
SCALE
  5
44
102
{ACAD_REACTORS
330
3B
102
}
330
3B
100
AcDbScale
 70
     0
300
1:30
140
1.0
141
30.0
290
     0
  0
SCALE
  5
45
102
{ACAD_REACTORS
330
3B
102
}
330
3B
100
AcDbScale
 70
     0
300
1:40
140
1.0
141
40.0
290
     0
  0
SCALE
  5
46
102
{ACAD_REACTORS
330
3B
102
}
330
3B
100
AcDbScale
 70
     0
300
1:50
140
1.0
141
50.0
290
     0
  0
SCALE
  5
47
102
{ACAD_REACTORS
330
3B
102
}
330
3B
100
AcDbScale
 70
     0
300
1:100
140
1.0
141
100.0
290
     0
  0
SCALE
  5
48
102
{ACAD_REACTORS
330
3B
102
}
330
3B
100
AcDbScale
 70
     0
300
2:1
140
2.0
141
1.0
290
     0
  0
SCALE
  5
49
102
{ACAD_REACTORS
330
3B
102
}
330
3B
100
AcDbScale
 70
     0
300
4:1
140
4.0
141
1.0
290
     0
  0
SCALE
  5
4A
102
{ACAD_REACTORS
330
3B
102
}
330
3B
100
AcDbScale
 70
     0
300
8:1
140
8.0
141
1.0
290
     0
  0
SCALE
  5
4B
102
{ACAD_REACTORS
330
3B
102
}
330
3B
100
AcDbScale
 70
     0
300
10:1
140
10.0
141
1.0
290
     0
  0
SCALE
  5
4C
102
{ACAD_REACTORS
330
3B
102
}
330
3B
100
AcDbScale
 70
     0
300
100:1
140
100.0
141
1.0
290
     0
  0
SCALE
  5
4D
102
{ACAD_REACTORS
330
3B
102
}
330
3B
100
AcDbScale
 70
     0
300
1/128" = 1'-0"
140
0.0078125
141
12.0
290
     0
  0
SCALE
  5
4E
102
{ACAD_REACTORS
330
3B
102
}
330
3B
100
AcDbScale
 70
     0
300
1/64" = 1'-0"
140
0.015625
141
12.0
290
     0
  0
SCALE
  5
4F
102
{ACAD_REACTORS
330
3B
102
}
330
3B
100
AcDbScale
 70
     0
300
1/32" = 1'-0"
140
0.03125
141
12.0
290
     0
  0
SCALE
  5
50
102
{ACAD_REACTORS
330
3B
102
}
330
3B
100
AcDbScale
 70
     0
300
1/16" = 1'-0"
140
0.0625
141
12.0
290
     0
  0
SCALE
  5
51
102
{ACAD_REACTORS
330
3B
102
}
330
3B
100
AcDbScale
 70
     0
300
3/32" = 1'-0"
140
0.09375
141
12.0
290
     0
  0
SCALE
  5
52
102
{ACAD_REACTORS
330
3B
102
}
330
3B
100
AcDbScale
 70
     0
300
1/8" = 1'-0"
140
0.125
141
12.0
290
     0
  0
SCALE
  5
53
102
{ACAD_REACTORS
330
3B
102
}
330
3B
100
AcDbScale
 70
     0
300
3/16" = 1'-0"
140
0.1875
141
12.0
290
     0
  0
SCALE
  5
54
102
{ACAD_REACTORS
330
3B
102
}
330
3B
100
AcDbScale
 70
     0
300
1/4" = 1'-0"
140
0.25
141
12.0
290
     0
  0
SCALE
  5
55
102
{ACAD_REACTORS
330
3B
102
}
330
3B
100
AcDbScale
 70
     0
300
3/8" = 1'-0"
140
0.375
141
12.0
290
     0
  0
SCALE
  5
56
102
{ACAD_REACTORS
330
3B
102
}
330
3B
100
AcDbScale
 70
     0
300
1/2" = 1'-0"
140
0.5
141
12.0
290
     0
  0
SCALE
  5
57
102
{ACAD_REACTORS
330
3B
102
}
330
3B
100
AcDbScale
 70
     0
300
3/4" = 1'-0"
140
0.75
141
12.0
290
     0
  0
SCALE
  5
58
102
{ACAD_REACTORS
330
3B
102
}
330
3B
100
AcDbScale
 70
     0
300
1" = 1'-0"
140
1.0
141
12.0
290
     0
  0
SCALE
  5
59
102
{ACAD_REACTORS
330
3B
102
}
330
3B
100
AcDbScale
 70
     0
300
1-1/2" = 1'-0"
140
1.5
141
12.0
290
     0
  0
SCALE
  5
5A
102
{ACAD_REACTORS
330
3B
102
}
330
3B
100
AcDbScale
 70
     0
300
3" = 1'-0"
140
3.0
141
12.0
290
     0
  0
SCALE
  5
5B
102
{ACAD_REACTORS
330
3B
102
}
330
3B
100
AcDbScale
 70
     0
300
6" = 1'-0"
140
6.0
141
12.0
290
     0
  0
SCALE
  5
5C
102
{ACAD_REACTORS
330
3B
102
}
330
3B
100
AcDbScale
 70
     0
300
1'-0" = 1'-0"
140
12.0
141
12.0
290
     0
  0
VISUALSTYLE
  5
2F
102
{ACAD_REACTORS
330
2A
102
}
330
2A
100
AcDbVisualStyle
  2
2dWireframe
 70
     4
 71
     0
 72
     2
 73
     0
 90
        0
 40
-0.6
 41
-30.0
 62
     5
 63
     7
421
 16777215
 74
     1
 91
        4
 64
     7
 65
   257
 75
     1
175
     1
 42
1.0
 92
        0
 66
   257
 43
1.0
 76
     1
 77
     6
 78
     2
 67
     7
 79
     5
170
     0
171
     0
290
     0
174
     0
 93
        1
 44
0.0
173
     0
291
     0
 45
0.0
1001
ACAD
1000
AcDbSavedByObjectVersion
1070
     0
  0
VISUALSTYLE
  5
31
102
{ACAD_REACTORS
330
2A
102
}
330
2A
100
AcDbVisualStyle
  2
3D Hidden
 70
     6
 71
     1
 72
     2
 73
     2
 90
        0
 40
-0.6
 41
-30.0
 62
     5
 63
     7
421
 16777215
 74
     2
 91
        2
 64
     7
 65
   257
 75
     2
175
     1
 42
40.0
 92
        0
 66
   257
 43
1.0
 76
     1
 77
     6
 78
     2
 67
     7
 79
     3
170
     0
171
     0
290
     0
174
     0
 93
        1
 44
0.0
173
     0
291
     0
 45
0.0
1001
ACAD
1000
AcDbSavedByObjectVersion
1070
     0
  0
VISUALSTYLE
  5
30
102
{ACAD_REACTORS
330
2A
102
}
330
2A
100
AcDbVisualStyle
  2
3dWireframe
 70
     5
 71
     0
 72
     2
 73
     0
 90
        0
 40
-0.6
 41
-30.0
 62
     5
 63
     7
421
 16777215
 74
     1
 91
        4
 64
     7
 65
   257
 75
     1
175
     1
 42
1.0
 92
        0
 66
   257
 43
1.0
 76
     1
 77
     6
 78
     2
 67
     7
 79
     5
170
     0
171
     0
290
     0
174
     0
 93
        1
 44
0.0
173
     0
291
     0
 45
0.0
1001
ACAD
1000
AcDbSavedByObjectVersion
1070
     0
  0
VISUALSTYLE
  5
32
102
{ACAD_REACTORS
330
2A
102
}
330
2A
100
AcDbVisualStyle
  2
Basic
 70
     7
 71
     1
 72
     0
 73
     1
 90
        0
 40
-0.6
 41
-30.0
 62
     5
 63
     7
421
 16777215
 74
     0
 91
        4
 64
     7
 65
   257
 75
     1
175
     1
 42
1.0
 92
        8
 66
     7
 43
1.0
 76
     1
 77
     6
 78
     2
 67
     7
 79
     5
170
     0
171
     0
290
     0
174
     0
 93
        1
 44
0.0
173
     0
291
     1
 45
0.0
1001
ACAD
1000
AcDbSavedByObjectVersion
1070
     0
  0
VISUALSTYLE
  5
36
102
{ACAD_REACTORS
330
2A
102
}
330
2A
100
AcDbVisualStyle
  2
Brighten
 70
    12
 71
     2
 72
     2
 73
     0
 90
        0
 40
-0.6
 41
-30.0
 62
     5
 63
     7
421
 16777215
 74
     1
 91
        4
 64
     7
 65
   257
 75
     1
175
     1
 42
1.0
 92
        8
 66
     7
 43
1.0
 76
     1
 77
     6
 78
     2
 67
     7
 79
     5
170
     0
171
     0
290
     0
174
     0
 93
        1
 44
50.0
173
     0
291
     1
 45
0.0
1001
ACAD
1000
AcDbSavedByObjectVersion
1070
     0
  0
VISUALSTYLE
  5
3A
102
{ACAD_REACTORS
330
2A
102
}
330
2A
100
AcDbVisualStyle
  2
ColorChange
 70
    16
 71
     2
 72
     2
 73
     3
 90
        0
 40
-0.6
 41
-30.0
 62
     5
 63
     8
421
  8421504
 74
     1
 91
        4
 64
     7
 65
   257
 75
     1
175
     1
 42
1.0
 92
        8
 66
     8
424
  8421504
 43
1.0
 76
     1
 77
     6
 78
     2
 67
     7
 79
     5
170
     0
171
     0
290
     0
174
     0
 93
        1
 44
0.0
173
     0
291
     1
 45
0.0
1001
ACAD
1000
AcDbSavedByObjectVersion
1070
     0
  0
VISUALSTYLE
  5
34
102
{ACAD_REACTORS
330
2A
102
}
330
2A
100
AcDbVisualStyle
  2
Conceptual
 70
     9
 71
     3
 72
     2
 73
     0
 90
        0
 40
-0.6
 41
-30.0
 62
     5
 63
     7
421
 16777215
 74
     2
 91
        2
 64
     7
 65
   257
 75
     1
175
     1
 42
40.0
 92
        8
 66
     7
 43
1.0
 76
     1
 77
     6
 78
     2
 67
     7
 79
     3
170
     0
171
     0
290
     0
174
     0
 93
        1
 44
0.0
173
     0
291
     0
 45
0.0
1001
ACAD
1000
AcDbSavedByObjectVersion
1070
     0
  0
VISUALSTYLE
  5
35
102
{ACAD_REACTORS
330
2A
102
}
330
2A
100
AcDbVisualStyle
  2
Dim
 70
    11
 71
     2
 72
     2
 73
     0
 90
        0
 40
-0.6
 41
-30.0
 62
     5
 63
     7
421
 16777215
 74
     1
 91
        4
 64
     7
 65
   257
 75
     1
175
     1
 42
1.0
 92
        8
 66
     7
 43
1.0
 76
     1
 77
     6
 78
     2
 67
     7
 79
     5
170
     0
171
     0
290
     0
174
     0
 93
        1
 44
-50.0
173
     0
291
     1
 45
0.0
1001
ACAD
1000
AcDbSavedByObjectVersion
1070
     0
  0
VISUALSTYLE
  5
39
102
{ACAD_REACTORS
330
2A
102
}
330
2A
100
AcDbVisualStyle
  2
Facepattern
 70
    15
 71
     2
 72
     2
 73
     0
 90
        0
 40
-0.6
 41
-30.0
 62
     5
 63
     7
421
 16777215
 74
     1
 91
        4
 64
     7
 65
   257
 75
     1
175
     1
 42
1.0
 92
        8
 66
     7
 43
1.0
 76
     1
 77
     6
 78
     2
 67
     7
 79
     5
170
     0
171
     0
290
     0
174
     0
 93
        1
 44
0.0
173
     0
291
     1
 45
0.0
1001
ACAD
1000
AcDbSavedByObjectVersion
1070
     0
  0
VISUALSTYLE
  5
2B
102
{ACAD_REACTORS
330
2A
102
}
330
2A
100
AcDbVisualStyle
  2
Flat
 70
     0
 71
     2
 72
     1
 73
     1
 90
        2
 40
-0.6
 41
30.0
 62
     5
 63
     7
421
 16777215
 74
     0
 91
        4
 64
     7
 65
   257
 75
     1
175
     1
 42
1.0
 92
        8
 66
     7
 43
1.0
 76
     1
 77
     6
 78
     2
 67
     7
 79
     5
170
     0
171
     0
290
     0
174
     0
 93
       13
 44
0.0
173
     0
291
     1
 45
0.0
1001
ACAD
1000
AcDbSavedByObjectVersion
1070
     0
  0
VISUALSTYLE
  5
2C
102
{ACAD_REACTORS
330
2A
102
}
330
2A
100
AcDbVisualStyle
  2
FlatWithEdges
 70
     1
 71
     2
 72
     1
 73
     1
 90
        2
 40
-0.6
 41
30.0
 62
     5
 63
     7
421
 16777215
 74
     1
 91
        4
 64
     7
 65
   257
 75
     1
175
     1
 42
1.0
 92
        0
 66
   257
 43
1.0
 76
     1
 77
     6
 78
     2
 67
     7
 79
     5
170
     0
171
     0
290
     0
174
     0
 93
       13
 44
0.0
173
     0
291
     1
 45
0.0
1001
ACAD
1000
AcDbSavedByObjectVersion
1070
     0
  0
VISUALSTYLE
  5
2D
102
{ACAD_REACTORS
330
2A
102
}
330
2A
100
AcDbVisualStyle
  2
Gouraud
 70
     2
 71
     2
 72
     2
 73
     1
 90
        2
 40
-0.6
 41
30.0
 62
     5
 63
     7
421
 16777215
 74
     0
 91
        4
 64
     7
 65
   257
 75
     1
175
     1
 42
1.0
 92
        0
 66
     7
 43
1.0
 76
     1
 77
     6
 78
     2
 67
     7
 79
     5
170
     0
171
     0
290
     0
174
     0
 93
       13
 44
0.0
173
     0
291
     1
 45
0.0
1001
ACAD
1000
AcDbSavedByObjectVersion
1070
     0
  0
VISUALSTYLE
  5
2E
102
{ACAD_REACTORS
330
2A
102
}
330
2A
100
AcDbVisualStyle
  2
GouraudWithEdges
 70
     3
 71
     2
 72
     2
 73
     1
 90
        2
 40
-0.6
 41
30.0
 62
     5
 63
     7
421
 16777215
 74
     1
 91
        4
 64
     7
 65
   257
 75
     1
175
     1
 42
1.0
 92
        0
 66
   257
 43
1.0
 76
     1
 77
     6
 78
     2
 67
     7
 79
     5
170
     0
171
     0
290
     0
174
     0
 93
       13
 44
0.0
173
     0
291
     1
 45
0.0
1001
ACAD
1000
AcDbSavedByObjectVersion
1070
     0
  0
VISUALSTYLE
  5
38
102
{ACAD_REACTORS
330
2A
102
}
330
2A
100
AcDbVisualStyle
  2
Linepattern
 70
    14
 71
     2
 72
     2
 73
     0
 90
        0
 40
-0.6
 41
-30.0
 62
     5
 63
     7
421
 16777215
 74
     1
 91
        4
 64
     7
 65
   257
 75
     7
175
     7
 42
1.0
 92
        8
 66
     7
 43
1.0
 76
     1
 77
     6
 78
     2
 67
     7
 79
     5
170
     0
171
     0
290
     0
174
     0
 93
        1
 44
0.0
173
     0
291
     1
 45
0.0
1001
ACAD
1000
AcDbSavedByObjectVersion
1070
     0
  0
VISUALSTYLE
  5
33
102
{ACAD_REACTORS
330
2A
102
}
330
2A
100
AcDbVisualStyle
  2
Realistic
 70
     8
 71
     2
 72
     2
 73
     0
 90
        0
 40
-0.6
 41
-30.0
 62
     5
 63
     7
421
 16777215
 74
     1
 91
        0
 64
     7
 65
   257
 75
     1
175
     1
 42
1.0
 92
        8
 66
     8
424
  7895160
 43
1.0
 76
     1
 77
     6
 78
     2
 67
     7
 79
     5
170
     0
171
     0
290
     0
174
     0
 93
       13
 44
0.0
173
     0
291
     0
 45
0.0
1001
ACAD
1000
AcDbSavedByObjectVersion
1070
     0
  0
VISUALSTYLE
  5
37
102
{ACAD_REACTORS
330
2A
102
}
330
2A
100
AcDbVisualStyle
  2
Thicken
 70
    13
 71
     2
 72
     2
 73
     0
 90
        0
 40
-0.6
 41
-30.0
 62
     5
 63
     7
421
 16777215
 74
     1
 91
        4
 64
     7
 65
   257
 75
     1
175
     1
 42
1.0
 92
       12
 66
     7
 43
1.0
 76
     1
 77
     6
 78
     2
 67
     7
 79
     5
170
     0
171
     0
290
     0
174
     0
 93
        1
 44
0.0
173
     0
291
     1
 45
0.0
1001
ACAD
1000
AcDbSavedByObjectVersion
1070
     0
  0
ENDSEC
  0
EOF
