  0
SECTION
  2
HEADER
  9
$ACADVER
  1
AC1018
  9
$ACADMAINTVER
 70
     0
  9
$DWGCODEPAGE
  3
ANSI_1252
  9
$INSBASE
 10
0.0
 20
0.0
 30
0.0
  9
$EXTMIN
 10
1.000000000000000E+20
 20
1.000000000000000E+20
 30
1.000000000000000E+20
  9
$EXTMAX
 10
-1.000000000000000E+20
 20
-1.000000000000000E+20
 30
-1.000000000000000E+20
  9
$LIMMIN
 10
0.0
 20
0.0
  9
$LIMMAX
 10
12.0
 20
9.0
  9
$ORTHOMODE
 70
     0
  9
$REGENMODE
 70
     1
  9
$FILLMODE
 70
     1
  9
$QTEXTMODE
 70
     0
  9
$MIRRTEXT
 70
     1
  9
$LTSCALE
 40
1.0
  9
$ATTMODE
 70
     1
  9
$TEXTSIZE
 40
0.2
  9
$TRACEWID
 40
0.05
  9
$TEXTSTYLE
  7
Standard
  9
$CLAYER
  8
0
  9
$CELTYPE
  6
ByLayer
  9
$CECOLOR
 62
   256
  9
$CELTSCALE
 40
1.0
  9
$DISPSILH
 70
     0
  9
$DIMSCALE
 40
1.0
  9
$DIMASZ
 40
0.18
  9
$DIMEXO
 40
0.0625
  9
$DIMDLI
 40
0.38
  9
$DIMRND
 40
0.0
  9
$DIMDLE
 40
0.0
  9
$DIMEXE
 40
0.18
  9
$DIMTP
 40
0.0
  9
$DIMTM
 40
0.0
  9
$DIMTXT
 40
0.18
  9
$DIMCEN
 40
0.09
  9
$DIMTSZ
 40
0.0
  9
$DIMTOL
 70
     0
  9
$DIMLIM
 70
     0
  9
$DIMTIH
 70
     1
  9
$DIMTOH
 70
     1
  9
$DIMSE1
 70
     0
  9
$DIMSE2
 70
     0
  9
$DIMTAD
 70
     0
  9
$DIMZIN
 70
     0
  9
$DIMBLK
  1

  9
$DIMASO
 70
     1
  9
$DIMSHO
 70
     1
  9
$DIMPOST
  1

  9
$DIMAPOST
  1

  9
$DIMALT
 70
     0
  9
$DIMALTD
 70
     2
  9
$DIMALTF
 40
25.4
  9
$DIMLFAC
 40
1.0
  9
$DIMTOFL
 70
     0
  9
$DIMTVP
 40
0.0
  9
$DIMTIX
 70
     0
  9
$DIMSOXD
 70
     0
  9
$DIMSAH
 70
     0
  9
$DIMBLK1
  1

  9
$DIMBLK2
  1

  9
$DIMSTYLE
  2
Standard
  9
$DIMCLRD
 70
     0
  9
$DIMCLRE
 70
     0
  9
$DIMCLRT
 70
     0
  9
$DIMTFAC
 40
1.0
  9
$DIMGAP
 40
0.09
  9
$DIMJUST
 70
     0
  9
$DIMSD1
 70
     0
  9
$DIMSD2
 70
     0
  9
$DIMTOLJ
 70
     1
  9
$DIMTZIN
 70
     0
  9
$DIMALTZ
 70
     0
  9
$DIMALTTZ
 70
     0
  9
$DIMUPT
 70
     0
  9
$DIMDEC
 70
     4
  9
$DIMTDEC
 70
     4
  9
$DIMALTU
 70
     2
  9
$DIMALTTD
 70
     2
  9
$DIMTXSTY
  7
Standard
  9
$DIMAUNIT
 70
     0
  9
$DIMADEC
 70
     0
  9
$DIMALTRND
 40
0.0
  9
$DIMAZIN
 70
     0
  9
$DIMDSEP
 70
    46
  9
$DIMATFIT
 70
     3
  9
$DIMFRAC
 70
     0
  9
$DIMLDRBLK
  1

  9
$DIMLUNIT
 70
     2
  9
$DIMLWD
 70
    -2
  9
$DIMLWE
 70
    -2
  9
$DIMTMOVE
 70
     0
  9
$LUNITS
 70
     2
  9
$LUPREC
 70
     4
  9
$SKETCHINC
 40
0.1
  9
$FILLETRAD
 40
0.5
  9
$AUNITS
 70
     0
  9
$AUPREC
 70
     0
  9
$MENU
  1
.
  9
$ELEVATION
 40
0.0
  9
$PELEVATION
 40
0.0
  9
$THICKNESS
 40
0.0
  9
$LIMCHECK
 70
     0
  9
$CHAMFERA
 40
0.5
  9
$CHAMFERB
 40
0.5
  9
$CHAMFERC
 40
1.0
  9
$CHAMFERD
 40
0.0
  9
$SKPOLY
 70
     0
  9
$TDCREATE
 40
2455890.647938982
  9
$TDUCREATE
 40
2455890.606272315
  9
$TDUPDATE
 40
2455890.647938993
  9
$TDUUPDATE
 40
2455890.606272326
  9
$TDINDWG
 40
0.0000000116
  9
$TDUSRTIMER
 40
0.0000000116
  9
$USRTIMER
 70
     1
  9
$ANGBASE
 50
0.0
  9
$ANGDIR
 70
     0
  9
$PDMODE
 70
     0
  9
$PDSIZE
 40
0.0
  9
$PLINEWID
 40
0.0
  9
$SPLFRAME
 70
     0
  9
$SPLINETYPE
 70
     6
  9
$SPLINESEGS
 70
     8
  9
$HANDSEED
  5
94
  9
$SURFTAB1
 70
     6
  9
$SURFTAB2
 70
     6
  9
$SURFTYPE
 70
     6
  9
$SURFU
 70
     6
  9
$SURFV
 70
     6
  9
$UCSBASE
  2

  9
$UCSNAME
  2

  9
$UCSORG
 10
0.0
 20
0.0
 30
0.0
  9
$UCSXDIR
 10
1.0
 20
0.0
 30
0.0
  9
$UCSYDIR
 10
0.0
 20
1.0
 30
0.0
  9
$UCSORTHOREF
  2

  9
$UCSORTHOVIEW
 70
     0
  9
$UCSORGTOP
 10
0.0
 20
0.0
 30
0.0
  9
$UCSORGBOTTOM
 10
0.0
 20
0.0
 30
0.0
  9
$UCSORGLEFT
 10
0.0
 20
0.0
 30
0.0
  9
$UCSORGRIGHT
 10
0.0
 20
0.0
 30
0.0
  9
$UCSORGFRONT
 10
0.0
 20
0.0
 30
0.0
  9
$UCSORGBACK
 10
0.0
 20
0.0
 30
0.0
  9
$PUCSBASE
  2

  9
$PUCSNAME
  2

  9
$PUCSORG
 10
0.0
 20
0.0
 30
0.0
  9
$PUCSXDIR
 10
1.0
 20
0.0
 30
0.0
  9
$PUCSYDIR
 10
0.0
 20
1.0
 30
0.0
  9
$PUCSORTHOREF
  2

  9
$PUCSORTHOVIEW
 70
     0
  9
$PUCSORGTOP
 10
0.0
 20
0.0
 30
0.0
  9
$PUCSORGBOTTOM
 10
0.0
 20
0.0
 30
0.0
  9
$PUCSORGLEFT
 10
0.0
 20
0.0
 30
0.0
  9
$PUCSORGRIGHT
 10
0.0
 20
0.0
 30
0.0
  9
$PUCSORGFRONT
 10
0.0
 20
0.0
 30
0.0
  9
$PUCSORGBACK
 10
0.0
 20
0.0
 30
0.0
  9
$USERI1
 70
     0
  9
$USERI2
 70
     0
  9
$USERI3
 70
     0
  9
$USERI4
 70
     0
  9
$USERI5
 70
     0
  9
$USERR1
 40
0.0
  9
$USERR2
 40
0.0
  9
$USERR3
 40
0.0
  9
$USERR4
 40
0.0
  9
$USERR5
 40
0.0
  9
$WORLDVIEW
 70
     1
  9
$SHADEDGE
 70
     3
  9
$SHADEDIF
 70
    70
  9
$TILEMODE
 70
     1
  9
$MAXACTVP
 70
    64
  9
$PINSBASE
 10
0.0
 20
0.0
 30
0.0
  9
$PLIMCHECK
 70
     0
  9
$PEXTMIN
 10
1.000000000000000E+20
 20
1.000000000000000E+20
 30
1.000000000000000E+20
  9
$PEXTMAX
 10
-1.000000000000000E+20
 20
-1.000000000000000E+20
 30
-1.000000000000000E+20
  9
$PLIMMIN
 10
0.0
 20
0.0
  9
$PLIMMAX
 10
12.0
 20
9.0
  9
$UNITMODE
 70
     0
  9
$VISRETAIN
 70
     1
  9
$PLINEGEN
 70
     0
  9
$PSLTSCALE
 70
     1
  9
$TREEDEPTH
 70
  3020
  9
$CMLSTYLE
  2
Standard
  9
$CMLJUST
 70
     0
  9
$CMLSCALE
 40
1.0
  9
$PROXYGRAPHICS
 70
     1
  9
$MEASUREMENT
 70
     0
  9
$CELWEIGHT
370
    -1
  9
$ENDCAPS
280
     0
  9
$JOINSTYLE
280
     0
  9
$LWDISPLAY
290
     0
  9
$INSUNITS
 70
    13
  9
$HYPERLINKBASE
  1

  9
$STYLESHEET
  1

  9
$XEDIT
290
     1
  9
$CEPSNTYPE
380
     0
  9
$PSTYLEMODE
290
     1
  9
$FINGERPRINTGUID
  2
{02419E48-8CF8-402D-818D-F32BA2BBDE1F}
  9
$VERSIONGUID
  2
{FAEB1C32-E019-11D5-929B-00C0DF256EC4}
  9
$EXTNAMES
290
     1
  9
$PSVPSCALE
 40
0.0
  9
$OLESTARTUP
290
     0
  9
$SORTENTS
280
   127
  9
$INDEXCTL
280
     0
  9
$HIDETEXT
280
     1
  9
$XCLIPFRAME
290
     0
  9
$HALOGAP
280
     0
  9
$OBSCOLOR
 70
   257
  9
$OBSLTYPE
280
     0
  9
$INTERSECTIONDISPLAY
280
     0
  9
$INTERSECTIONCOLOR
 70
   257
  9
$DIMASSOC
280
     2
  9
$PROJECTNAME
  1

  0
ENDSEC
  0
SECTION
  2
CLASSES
  0
CLASS
  1
ACDBDICTIONARYWDFLT
  2
AcDbDictionaryWithDefault
  3
ObjectDBX Classes
 90
        0
 91
        3
280
     0
281
     0
  0
CLASS
  1
VISUALSTYLE
  2
AcDbVisualStyle
  3
ObjectDBX Classes
 90
     4095
 91
        3
280
     0
281
     0
  0
CLASS
  1
SCALE
  2
AcDbScale
  3
ObjectDBX Classes
 90
     1153
 91
        3
280
     0
281
     0
  0
ENDSEC
  0
SECTION
  2
TABLES
  0
TABLE
  2
VPORT
  5
8
330
0
100
AcDbSymbolTable
 70
     1
  0
VPORT
  5
29
330
8
100
AcDbSymbolTableRecord
100
AcDbViewportTableRecord
  2
*Active
 70
     0
 10
0.0
 20
0.0
 11
1.0
 21
1.0
 12
10.42990654205607
 22
4.5
 13
0.0
 23
0.0
 14
0.5
 24
0.5
 15
0.5
 25
0.5
 16
0.0
 26
0.0
 36
1.0
 17
0.0
 27
0.0
 37
0.0
 40
9.0
 41
1.972972972850329
 42
50.0
 43
0.0
 44
0.0
 50
0.0
 51
0.0
 71
     0
 72
   100
 73
     1
 74
     3
 75
     0
 76
     0
 77
     0
 78
     0
281
     0
 65
     1
110
0.0
120
0.0
130
0.0
111
1.0
121
0.0
131
0.0
112
0.0
122
1.0
132
0.0
 79
     0
146
0.0
  0
ENDTAB
  0
TABLE
  2
LTYPE
  5
5
330
0
100
AcDbSymbolTable
 70
     1
  0
LTYPE
  5
14
330
5
100
AcDbSymbolTableRecord
100
AcDbLinetypeTableRecord
  2
ByBlock
 70
     0
  3

 72
    65
 73
     0
 40
0.0
  0
LTYPE
  5
15
330
5
100
AcDbSymbolTableRecord
100
AcDbLinetypeTableRecord
  2
ByLayer
 70
     0
  3

 72
    65
 73
     0
 40
0.0
  0
LTYPE
  5
16
330
5
100
AcDbSymbolTableRecord
100
AcDbLinetypeTableRecord
  2
Continuous
 70
     0
  3
Solid line
 72
    65
 73
     0
 40
0.0
  0
ENDTAB
  0
TABLE
  2
LAYER
  5
2
330
0
100
AcDbSymbolTable
 70
     2
  0
LAYER
  5
10
330
2
100
AcDbSymbolTableRecord
100
AcDbLayerTableRecord
  2
0
 70
     0
 62
     7
  6
Continuous
370
    -3
390
F
  0
LAYER
  5
5E
330
2
100
AcDbSymbolTableRecord
100
AcDbLayerTableRecord
  2
met1
 70
     0
 62
   136
420
    32896
  6
Continuous
370
    -3
390
F
  0
ENDTAB
  0
TABLE
  2
STYLE
  5
3
330
0
100
AcDbSymbolTable
 70
     1
  0
STYLE
  5
11
330
3
100
AcDbSymbolTableRecord
100
AcDbTextStyleTableRecord
  2
Standard
 70
     0
 40
0.0
 41
1.0
 50
0.0
 71
     0
 42
0.2
  3
txt
  4

  0
ENDTAB
  0
TABLE
  2
VIEW
  5
6
330
0
100
AcDbSymbolTable
 70
     0
  0
ENDTAB
  0
TABLE
  2
UCS
  5
7
330
0
100
AcDbSymbolTable
 70
     0
  0
ENDTAB
  0
TABLE
  2
APPID
  5
9
330
0
100
AcDbSymbolTable
 70
     1
  0
APPID
  5
12
330
9
100
AcDbSymbolTableRecord
100
AcDbRegAppTableRecord
  2
ACAD
 70
     0
  0
ENDTAB
  0
TABLE
  2
DIMSTYLE
  5
A
330
0
100
AcDbSymbolTable
 70
     1
100
AcDbDimStyleTable
  0
DIMSTYLE
105
27
330
A
100
AcDbSymbolTableRecord
100
AcDbDimStyleTableRecord
  2
Standard
 70
     0
340
11
  0
ENDTAB
  0
TABLE
  2
BLOCK_RECORD
  5
1
330
0
100
AcDbSymbolTable
 70
     1
  0
BLOCK_RECORD
  5
1F
330
1
100
AcDbSymbolTableRecord
100
AcDbBlockTableRecord
  2
*Model_Space
340
22
  0
BLOCK_RECORD
  5
1B
330
1
100
AcDbSymbolTableRecord
100
AcDbBlockTableRecord
  2
*Paper_Space
340
1E
  0
BLOCK_RECORD
  5
23
330
1
100
AcDbSymbolTableRecord
100
AcDbBlockTableRecord
  2
*Paper_Space0
340
26
  0
ENDTAB
  0
ENDSEC
  0
SECTION
  2
BLOCKS
  0
BLOCK
  5
20
330
1F
100
AcDbEntity
  8
0
100
AcDbBlockBegin
  2
*Model_Space
 70
     0
 10
0.0
 20
0.0
 30
0.0
  3
*Model_Space
  1

  0
ENDBLK
  5
21
330
1F
100
AcDbEntity
  8
0
100
AcDbBlockEnd
  0
BLOCK
  5
1C
330
1B
100
AcDbEntity
 67
     1
  8
0
100
AcDbBlockBegin
  2
*Paper_Space
 70
     0
 10
0.0
 20
0.0
 30
0.0
  3
*Paper_Space
  1

  0
ENDBLK
  5
1D
330
1B
100
AcDbEntity
 67
     1
  8
0
100
AcDbBlockEnd
  0
BLOCK
  5
24
330
23
100
AcDbEntity
  8
0
100
AcDbBlockBegin
  2
*Paper_Space0
 70
     0
 10
0.0
 20
0.0
 30
0.0
  3
*Paper_Space0
  1

  0
ENDBLK
  5
25
330
23
100
AcDbEntity
  8
0
100
AcDbBlockEnd
  0
ENDSEC
  0
SECTION
  2
ENTITIES
  0
LWPOLYLINE
  5
5D
330
1F
100
AcDbEntity
  8
met1
100
AcDbPolyline
 90
       14
 70
     1
 43
0.0
 10
-218.0
 20
223.5
 10
1084.5
 20
223.5
 10
1084.5
 20
1208.5
 10
1079.5
 20
1208.5
 10
1079.5
 20
1203.5
 10
1079.5
 20
228.5
 10
-215.5
 20
228.5
 10
-215.5
 20
1203.5
 10
1079.5
 20
1203.5
 10
1079.5
 20
1208.5
 10
-220.5
 20
1208.5
 10
-220.5
 20
1203.5
 10
-220.5
 20
226.0
 10
-218.0
 20
226.0
  0
LWPOLYLINE
  5
5F
330
1F
100
AcDbEntity
  8
met1
100
AcDbPolyline
 90
        4
 70
     1
 43
0.0
 10
761.5
 20
291.0
 10
761.5
 20
388.0
 10
858.5
 20
388.0
 10
858.5
 20
291.0
  0
LWPOLYLINE
  5
60
330
1F
100
AcDbEntity
  8
met1
100
AcDbPolyline
 90
        6
 70
     1
 43
0.0
 10
-83.0
 20
565.8000000000001
 10
-53.0
 20
553.3000000000001
 10
-53.0
 20
518.3
 10
-83.0
 20
505.8
 10
-153.0
 20
505.8
 10
-153.0
 20
565.8000000000001
  0
LWPOLYLINE
  5
61
330
1F
100
AcDbEntity
  8
met1
100
AcDbPolyline
 90
       47
 70
     1
 43
0.0
 10
-54.4
 20
832.5
 10
-53.0
 20
832.5
 10
-53.0
 20
810.86
 10
-54.6
 20
805.1
 10
-57.0
 20
798.3000000000001
 10
-59.4
 20
791.9
 10
-62.6
 20
786.3000000000001
 10
-66.2
 20
781.1
 10
-69.8
 20
776.3000000000001
 10
-73.8
 20
772.7
 10
-78.2
 20
769.5
 10
-82.60000000000001
 20
767.5
 10
-87.0
 20
765.9
 10
-91.4
 20
765.5
 10
-95.4
 20
765.9
 10
-97.8
 20
766.7
 10
-99.8
 20
767.5
 10
-102.2
 20
768.7
 10
-104.2
 20
770.3000000000001
 10
-108.2
 20
774.3000000000001
 10
-109.8
 20
776.7
 10
-111.8
 20
779.1
 10
-113.4
 20
781.9
 10
-115.8
 20
787.5
 10
-117.0
 20
790.7
 10
-114.6
 20
785.9
 10
-113.4
 20
784.3000000000001
 10
-112.2
 20
782.3000000000001
 10
-111.0
 20
780.7
 10
-106.2
 20
777.1
 10
-104.6
 20
776.3000000000001
 10
-102.6
 20
775.5
 10
-98.60000000000001
 20
774.7
 10
-95.0
 20
774.3000000000001
 10
-90.60000000000001
 20
774.7
 10
-85.8
 20
775.9
 10
-81.8
 20
778.3000000000001
 10
-77.4
 20
781.5
 10
-73.4
 20
785.1
 10
-69.8
 20
789.9
 10
-66.2
 20
795.1
 10
-63.0
 20
800.7
 10
-60.2
 20
807.1
 10
-57.8
 20
813.9
 10
-56.2
 20
821.1
 10
-55.0
 20
827.5
 10
-54.6
 20
830.7
  0
LWPOLYLINE
  5
62
330
1F
100
AcDbEntity
  8
met1
100
AcDbPolyline
 90
      126
 70
     1
 43
0.0
 10
-53.4
 20
854.3000000000001
 10
-53.0
 20
852.3000000000001
 10
-53.0
 20
832.5
 10
-54.4
 20
832.5
 10
-54.2
 20
834.3000000000001
 10
-53.8
 20
837.5
 10
-53.8
 20
845.9
 10
-54.2
 20
845.1
 10
-58.2
 20
841.1
 10
-60.6
 20
839.5
 10
-64.2
 20
836.7
 10
-69.0
 20
834.3000000000001
 10
-70.2
 20
833.9
 10
-70.60000000000001
 20
833.5
 10
-71.8
 20
832.7
 10
-72.0
 20
832.5
 10
-115.6
 20
832.5
 10
-113.4
 20
834.7
 10
-111.8
 20
835.5
 10
-111.0
 20
836.3000000000001
 10
-114.6
 20
838.7
 10
-119.0
 20
841.9
 10
-122.2
 20
845.5
 10
-123.8
 20
847.5
 10
-125.4
 20
849.9
 10
-127.8
 20
854.7
 10
-130.2
 20
861.9
 10
-130.6
 20
864.3000000000001
 10
-130.6
 20
871.9
 10
-130.2
 20
874.7
 10
-130.2
 20
872.3000000000001
 10
-129.8
 20
869.9
 10
-129.8
 20
867.9
 10
-129.0
 20
865.9
 10
-128.6
 20
863.9
 10
-127.0
 20
859.9
 10
-126.2
 20
858.3000000000001
 10
-125.0
 20
856.7
 10
-124.2
 20
855.5
 10
-123.0
 20
853.9
 10
-119.4
 20
850.3000000000001
 10
-116.2
 20
847.9
 10
-107.4
 20
843.9
 10
-105.4
 20
843.5
 10
-105.0
 20
849.1
 10
-103.8
 20
855.1
 10
-102.2
 20
860.3000000000001
 10
-101.8
 20
861.9
 10
-103.4
 20
864.3000000000001
 10
-105.0
 20
867.1
 10
-106.2
 20
869.1
 10
-107.0
 20
871.5
 10
-108.2
 20
873.9
 10
-109.0
 20
876.3000000000001
 10
-109.4
 20
878.7
 10
-110.2
 20
881.5
 10
-111.0
 20
886.3000000000001
 10
-111.0
 20
897.5
 10
-110.6
 20
899.5
 10
-110.6
 20
894.3000000000001
 10
-110.2
 20
892.3000000000001
 10
-110.2
 20
890.3000000000001
 10
-109.8
 20
888.7
 10
-109.0
 20
886.7
 10
-108.6
 20
884.7
 10
-107.8
 20
882.7
 10
-107.4
 20
880.7
 10
-106.6
 20
879.1
 10
-105.4
 20
877.1
 10
-104.6
 20
875.1
 10
-103.4
 20
873.1
 10
-101.8
 20
870.7
 10
-99.4
 20
867.5
 10
-98.2
 20
869.9
 10
-95.8
 20
873.5
 10
-93.0
 20
877.1
 10
-89.8
 20
879.5
 10
-86.60000000000001
 20
881.5
 10
-83.0
 20
882.7
 10
-79.8
 20
883.1
 10
-77.8
 20
883.1
 10
-75.8
 20
882.7
 10
-71.8
 20
881.1
 10
-70.2
 20
879.9
 10
-66.2
 20
876.7
 10
-64.6
 20
875.1
 10
-63.0
 20
873.1
 10
-61.0
 20
871.1
 10
-59.8
 20
869.1
 10
-58.2
 20
866.7
 10
-59.4
 20
868.3000000000001
 10
-61.0
 20
869.9
 10
-62.2
 20
871.5
 10
-63.4
 20
872.7
 10
-65.0
 20
873.5
 10
-66.2
 20
874.3000000000001
 10
-69.4
 20
875.9
 10
-70.60000000000001
 20
876.3000000000001
 10
-72.2
 20
876.3000000000001
 10
-74.2
 20
876.7
 10
-75.8
 20
876.7
 10
-78.60000000000001
 20
876.3000000000001
 10
-82.2
 20
875.1
 10
-85.4
 20
873.1
 10
-88.60000000000001
 20
870.3000000000001
 10
-91.4
 20
867.1
 10
-93.8
 20
863.1
 10
-94.60000000000001
 20
862.3000000000001
 10
-92.2
 20
860.3000000000001
 10
-88.60000000000001
 20
857.9
 10
-84.60000000000001
 20
855.5
 10
-80.60000000000001
 20
853.5
 10
-76.60000000000001
 20
851.9
 10
-72.60000000000001
 20
850.7
 10
-68.60000000000001
 20
849.9
 10
-64.6
 20
849.5
 10
-61.0
 20
849.9
 10
-57.8
 20
850.3000000000001
 10
-54.6
 20
851.5
 10
-54.2
 20
851.9
 10
-54.2
 20
852.7
 10
-55.0
 20
858.3000000000001
 10
-55.8
 20
861.1
 10
-56.6
 20
863.5
 10
-55.4
 20
860.7
 10
-54.6
 20
857.5
  0
LWPOLYLINE
  5
63
330
1F
100
AcDbEntity
  8
met1
100
AcDbPolyline
 90
       38
 70
     1
 43
0.0
 10
-85.8
 20
933.9
 10
-82.60000000000001
 20
934.3000000000001
 10
-77.0
 20
934.3000000000001
 10
-70.60000000000001
 20
932.3000000000001
 10
-64.6
 20
929.1
 10
-59.0
 20
924.7
 10
-53.8
 20
919.1
 10
-53.0
 20
918.054
 10
-53.0
 20
898.7
 10
-53.4
 20
899.5
 10
-58.2
 20
906.3000000000001
 10
-63.8
 20
911.9
 10
-69.4
 20
916.3000000000001
 10
-75.4
 20
919.5
 10
-81.8
 20
921.5
 10
-87.0
 20
921.9
 10
-90.2
 20
921.5
 10
-93.0
 20
921.1
 10
-95.8
 20
920.7
 10
-98.60000000000001
 20
919.9
 10
-101.4
 20
918.7
 10
-104.2
 20
917.1
 10
-106.6
 20
915.5
 10
-109.0
 20
913.5
 10
-111.4
 20
911.5
 10
-113.8
 20
908.7
 10
-115.8
 20
905.9
 10
-118.2
 20
902.7
 10
-115.8
 20
906.7
 10
-113.4
 20
911.1
 10
-111.0
 20
914.7
 10
-108.2
 20
918.3000000000001
 10
-105.4
 20
921.9
 10
-102.2
 20
924.7
 10
-99.0
 20
927.5
 10
-96.2
 20
929.9
 10
-92.60000000000001
 20
931.5
 10
-89.4
 20
933.1
  0
LWPOLYLINE
  5
64
330
1F
100
AcDbEntity
  8
met1
100
AcDbPolyline
 90
       25
 70
     1
 43
0.0
 10
946.5
 20
716.1
 10
951.1
 20
716.8000000000001
 10
1017.0
 20
716.8000000000001
 10
1017.0
 20
638.3000000000001
 10
1016.3
 20
633.7
 10
1013.8
 20
628.8000000000001
 10
1009.9
 20
624.9
 10
1004.9
 20
622.3000000000001
 10
999.5
 20
621.5
 10
994.1
 20
622.4
 10
989.1
 20
624.9
 10
985.2
 20
628.8000000000001
 10
982.7
 20
633.7
 10
982.0
 20
638.3000000000001
 10
982.0
 20
646.6
 10
959.5
 20
681.8000000000001
 10
951.1
 20
681.8000000000001
 10
946.5
 20
682.5
 10
941.6
 20
685.0
 10
937.7
 20
688.9
 10
935.1
 20
693.9
 10
934.3000000000001
 20
699.3000000000001
 10
935.2
 20
704.7
 10
937.7
 20
709.7
 10
941.6
 20
713.6
  0
LWPOLYLINE
  5
65
330
1F
100
AcDbEntity
  8
met1
100
AcDbPolyline
 90
        6
 70
     1
 43
0.0
 10
917.0
 20
768.3000000000001
 10
917.0
 20
803.3000000000001
 10
947.0
 20
815.8000000000001
 10
1017.0
 20
815.8000000000001
 10
1017.0
 20
755.8000000000001
 10
947.0
 20
755.8000000000001
  0
LWPOLYLINE
  5
66
330
1F
100
AcDbEntity
  8
met1
100
AcDbPolyline
 90
        7
 70
     1
 43
0.0
 10
796.001
 20
100.333
 10
796.001
 20
103.666
 10
812.667
 20
108.666
 10
796.001
 20
113.666
 10
796.001
 20
117.0
 10
819.3340000000001
 20
110.332
 10
819.3340000000001
 20
107.0
  0
LWPOLYLINE
  5
67
330
1F
100
AcDbEntity
  8
met1
100
AcDbPolyline
 90
       16
 70
     1
 43
0.0
 10
809.335
 20
152.0
 10
807.667
 20
150.332
 10
807.667
 20
145.332
 10
809.335
 20
143.666
 10
814.335
 20
143.666
 10
816.001
 20
145.332
 10
816.001
 20
150.332
 10
814.335
 20
152.0
 10
816.001
 20
155.332
 10
819.3340000000001
 20
152.0
 10
819.3340000000001
 20
143.666
 10
816.001
 20
140.333
 10
807.667
 20
140.333
 10
804.335
 20
143.666
 10
804.335
 20
152.0
 10
807.667
 20
155.332
  0
LWPOLYLINE
  5
68
330
1F
100
AcDbEntity
  8
met1
100
AcDbPolyline
 90
       12
 70
     1
 43
0.0
 10
819.3340000000001
 20
167.0
 10
819.3340000000001
 20
170.332
 10
807.667
 20
170.332
 10
807.667
 20
173.666
 10
804.335
 20
173.666
 10
804.335
 20
170.332
 10
801.001
 20
170.332
 10
801.001
 20
167.0
 10
804.335
 20
167.0
 10
804.335
 20
163.666
 10
807.667
 20
163.666
 10
807.667
 20
167.0
  0
LWPOLYLINE
  5
69
330
1F
100
AcDbEntity
  8
met1
100
AcDbPolyline
 90
       10
 70
     1
 43
0.0
 10
804.335
 20
183.666
 10
804.335
 20
187.0
 10
806.001
 20
187.0
 10
804.335
 20
188.666
 10
804.335
 20
195.332
 10
807.667
 20
195.332
 10
807.667
 20
188.666
 10
809.335
 20
187.0
 10
819.3340000000001
 20
187.0
 10
819.3340000000001
 20
183.666
  0
LWPOLYLINE
  5
6A
330
1F
100
AcDbEntity
  8
met1
100
AcDbPolyline
 90
       10
 70
     1
 43
0.0
 10
796.001
 20
205.332
 10
796.001
 20
210.332
 10
816.001
 20
210.332
 10
816.001
 20
212.0
 10
819.3340000000001
 20
212.0
 10
819.3340000000001
 20
205.332
 10
816.001
 20
205.332
 10
816.001
 20
207.0
 10
799.341
 20
207.0
 10
799.341
 20
205.332
  0
LWPOLYLINE
  5
6B
330
1F
100
AcDbEntity
  8
met1
100
AcDbPolyline
 90
       18
 70
     1
 43
0.0
 10
1116.001
 20
763.0070000000001
 10
1116.001
 20
786.34
 10
1129.334
 20
786.34
 10
1132.668
 20
783.0
 10
1132.668
 20
776.34
 10
1129.334
 20
773.006
 10
1124.334
 20
773.006
 10
1132.668
 20
764.674
 10
1132.668
 20
763.0070000000001
 10
1129.334
 20
763.0070000000001
 10
1119.334
 20
773.006
 10
1119.334
 20
776.34
 10
1127.668
 20
776.34
 10
1129.334
 20
778.006
 10
1129.334
 20
781.34
 10
1127.668
 20
783.0
 10
1119.334
 20
783.0
 10
1119.334
 20
763.0070000000001
  0
LWPOLYLINE
  5
6C
330
1F
100
AcDbEntity
  8
met1
100
AcDbPolyline
 90
       10
 70
     1
 43
0.0
 10
1136.001
 20
763.0070000000001
 10
1136.001
 20
786.34
 10
1151.0
 20
786.34
 10
1151.0
 20
783.0
 10
1139.334
 20
783.0
 10
1139.334
 20
776.34
 10
1146.0
 20
776.34
 10
1146.0
 20
773.006
 10
1139.334
 20
773.006
 10
1139.334
 20
763.0070000000001
  0
LWPOLYLINE
  5
6D
330
1F
100
AcDbEntity
  8
met1
100
AcDbPolyline
 90
       10
 70
     1
 43
0.0
 10
1182.668
 20
774.674
 10
1184.334
 20
774.674
 10
1184.334
 20
766.34
 10
1182.668
 20
766.34
 10
1182.668
 20
763.0070000000001
 10
1189.334
 20
763.0070000000001
 10
1189.334
 20
766.34
 10
1187.668
 20
766.34
 10
1187.668
 20
778.006
 10
1182.668
 20
778.006
  0
LWPOLYLINE
  5
6E
330
1F
100
AcDbEntity
  8
met1
100
AcDbPolyline
 90
        4
 70
     1
 43
0.0
 10
1184.334
 20
781.34
 10
1187.668
 20
781.34
 10
1187.668
 20
784.6800000000001
 10
1184.334
 20
784.6800000000001
  0
LWPOLYLINE
  5
6F
330
1F
100
AcDbEntity
  8
met1
100
AcDbPolyline
 90
       14
 70
     1
 43
0.0
 10
1196.001
 20
763.0070000000001
 10
1199.334
 20
763.0070000000001
 10
1199.334
 20
773.006
 10
1201.0
 20
774.674
 10
1207.668
 20
774.674
 10
1209.334
 20
773.006
 10
1209.334
 20
763.0070000000001
 10
1212.668
 20
763.0070000000001
 10
1212.668
 20
774.674
 10
1209.334
 20
778.006
 10
1201.0
 20
778.006
 10
1199.334
 20
776.34
 10
1199.334
 20
778.006
 10
1196.001
 20
778.006
  0
LWPOLYLINE
  5
70
330
1F
100
AcDbEntity
  8
met1
100
AcDbPolyline
 90
       25
 70
     1
 43
0.0
 10
49.916
 20
356.884
 10
55.628
 20
362.6
 10
72.772
 20
362.6
 10
78.484
 20
356.884
 10
72.772
 20
354.028
 10
69.916
 20
356.884
 10
58.484
 20
356.884
 10
55.628
 20
354.028
 10
55.628
 20
348.316
 10
58.484
 20
345.456
 10
72.772
 20
345.456
 10
78.484
 20
339.744
 10
78.484
 20
328.316
 10
72.772
 20
322.6
 10
55.628
 20
322.6
 10
49.916
 20
328.316
 10
55.628
 20
331.172
 10
58.484
 20
328.316
 10
69.916
 20
328.316
 10
72.772
 20
331.172
 10
72.772
 20
336.884
 10
69.916
 20
339.744
 10
55.628
 20
339.744
 10
49.916
 20
345.456
 10
49.916
 20
356.884
  0
LWPOLYLINE
  5
71
330
1F
100
AcDbEntity
  8
met1
100
AcDbPolyline
 90
        9
 70
     1
 43
0.0
 10
635.0
 20
388.0
 10
635.0
 20
419.0
 10
685.0
 20
419.0
 10
685.0
 20
388.0
 10
708.5
 20
388.0
 10
708.5
 20
291.0
 10
611.5
 20
291.0
 10
611.5
 20
388.0
 10
635.0
 20
388.0
  0
LWPOLYLINE
  5
72
330
1F
100
AcDbEntity
  8
met1
100
AcDbPolyline
 90
       26
 70
     1
 43
0.0
 10
994.1
 20
949.2
 10
999.5
 20
950.1
 10
1004.9
 20
949.3000000000001
 10
1009.9
 20
946.7
 10
1013.8
 20
942.8000000000001
 10
1016.3
 20
937.9
 10
1017.0
 20
933.3000000000001
 10
1017.0
 20
854.8000000000001
 10
951.1
 20
854.8000000000001
 10
946.5
 20
855.5
 10
941.6
 20
858.0
 10
937.7
 20
861.9
 10
935.2
 20
866.9
 10
934.3000000000001
 20
872.3000000000001
 10
935.1
 20
877.7
 10
937.7
 20
882.7
 10
941.6
 20
886.6
 10
946.5
 20
889.1
 10
951.1
 20
889.8000000000001
 10
959.5
 20
889.8000000000001
 10
982.0
 20
925.0
 10
982.0
 20
933.3000000000001
 10
982.7
 20
937.9
 10
985.2
 20
942.8000000000001
 10
989.1
 20
946.7
 10
994.1
 20
949.2
  0
LWPOLYLINE
  5
73
330
1F
100
AcDbEntity
  8
met1
100
AcDbPolyline
 90
        2
 70
     0
 43
0.0
 10
660.0
 20
384.0
 10
660.0
 20
388.0
  0
LWPOLYLINE
  5
74
330
1F
100
AcDbEntity
  8
met1
100
AcDbPolyline
 90
        9
 70
     1
 43
0.0
 10
149.916
 20
322.6
 10
138.484
 20
322.6
 10
132.772
 20
328.316
 10
132.772
 20
356.884
 10
138.484
 20
362.6
 10
149.916
 20
362.6
 10
155.628
 20
356.884
 10
155.628
 20
328.316
 10
149.916
 20
322.6
  0
LWPOLYLINE
  5
75
330
1F
100
AcDbEntity
  8
met1
100
AcDbPolyline
 90
        9
 70
     1
 43
0.0
 10
109.916
 20
322.6
 10
98.48400000000001
 20
322.6
 10
92.772
 20
328.316
 10
92.772
 20
356.884
 10
98.48400000000001
 20
362.6
 10
109.916
 20
362.6
 10
115.628
 20
356.884
 10
115.628
 20
328.316
 10
109.916
 20
322.6
  0
LWPOLYLINE
  5
76
330
1F
100
AcDbEntity
  8
met1
100
AcDbPolyline
 90
       17
 70
     1
 43
0.0
 10
-67.228
 20
339.744
 10
-61.516
 20
345.456
 10
-52.944
 20
345.456
 10
-50.084
 20
342.6
 10
-50.084
 20
345.456
 10
-44.372
 20
345.456
 10
-44.372
 20
316.884
 10
-50.084
 20
311.172
 10
-67.228
 20
311.172
 10
-67.228
 20
316.884
 10
-52.944
 20
316.884
 10
-50.084
 20
319.743
 10
-50.084
 20
325.457
 10
-52.944
 20
322.6
 10
-61.516
 20
322.6
 10
-67.228
 20
328.316
 10
-67.228
 20
339.744
  0
LWPOLYLINE
  5
77
330
1F
100
AcDbEntity
  8
met1
100
AcDbPolyline
 90
       26
 70
     1
 43
0.0
 10
209.916
 20
356.884
 10
215.628
 20
362.6
 10
232.772
 20
362.6
 10
238.484
 20
356.884
 10
238.484
 20
348.316
 10
232.772
 20
342.6
 10
238.484
 20
336.884
 10
238.484
 20
328.316
 10
232.772
 20
322.6
 10
215.628
 20
322.6
 10
209.916
 20
328.316
 10
215.628
 20
331.172
 10
218.484
 20
328.316
 10
229.916
 20
328.316
 10
232.772
 20
331.172
 10
232.772
 20
334.028
 10
227.056
 20
339.744
 10
221.344
 20
339.744
 10
221.344
 20
345.456
 10
227.056
 20
345.456
 10
232.772
 20
351.172
 10
232.772
 20
354.028
 10
229.916
 20
356.884
 10
218.484
 20
356.884
 10
215.628
 20
354.028
 10
209.916
 20
356.884
  0
LWPOLYLINE
  5
78
330
1F
100
AcDbEntity
  8
met1
100
AcDbPolyline
 90
       11
 70
     1
 43
0.0
 10
175.628
 20
356.884
 10
181.344
 20
362.6
 10
187.056
 20
362.6
 10
187.056
 20
328.316
 10
192.772
 20
328.316
 10
192.772
 20
322.6
 10
175.628
 20
322.6
 10
175.628
 20
328.316
 10
181.344
 20
328.316
 10
181.344
 20
356.884
 10
175.628
 20
356.884
  0
LWPOLYLINE
  5
79
330
1F
100
AcDbEntity
  8
met1
100
AcDbPolyline
 90
       25
 70
     1
 43
0.0
 10
9.916
 20
356.884
 10
15.628
 20
362.6
 10
32.772
 20
362.6
 10
38.484
 20
356.884
 10
32.772
 20
354.028
 10
29.916
 20
356.884
 10
18.484
 20
356.884
 10
15.628
 20
354.028
 10
15.628
 20
348.316
 10
18.484
 20
345.456
 10
32.772
 20
345.456
 10
38.484
 20
339.744
 10
38.484
 20
328.316
 10
32.772
 20
322.6
 10
15.628
 20
322.6
 10
9.916
 20
328.316
 10
15.628
 20
331.172
 10
18.484
 20
328.316
 10
29.916
 20
328.316
 10
32.772
 20
331.172
 10
32.772
 20
336.884
 10
29.916
 20
339.744
 10
15.628
 20
339.744
 10
9.916
 20
345.456
 10
9.916
 20
356.884
  0
LWPOLYLINE
  5
7A
330
1F
100
AcDbEntity
  8
met1
100
AcDbPolyline
 90
       25
 70
     1
 43
0.0
 10
-30.084
 20
356.884
 10
-24.372
 20
362.6
 10
-7.228
 20
362.6
 10
-1.516
 20
356.884
 10
-7.228
 20
354.028
 10
-10.084
 20
356.884
 10
-21.516
 20
356.884
 10
-24.372
 20
354.028
 10
-24.372
 20
348.316
 10
-21.516
 20
345.456
 10
-7.228
 20
345.456
 10
-1.516
 20
339.744
 10
-1.516
 20
328.316
 10
-7.228
 20
322.6
 10
-24.372
 20
322.6
 10
-30.084
 20
328.316
 10
-24.372
 20
331.172
 10
-21.516
 20
328.316
 10
-10.084
 20
328.316
 10
-7.228
 20
331.172
 10
-7.228
 20
336.884
 10
-10.084
 20
339.744
 10
-24.372
 20
339.744
 10
-30.084
 20
345.456
 10
-30.084
 20
356.884
  0
LWPOLYLINE
  5
7B
330
1F
100
AcDbEntity
  8
met1
100
AcDbPolyline
 90
       26
 70
     1
 43
0.0
 10
-87.10000000000001
 20
431.8
 10
-95.5
 20
431.8
 10
-118.0
 20
396.6
 10
-118.0
 20
388.3
 10
-118.7
 20
383.7
 10
-121.2
 20
378.8
 10
-125.1
 20
374.9
 10
-130.1
 20
372.4
 10
-135.5
 20
371.5
 10
-140.9
 20
372.3
 10
-145.9
 20
374.9
 10
-149.8
 20
378.8
 10
-152.3
 20
383.7
 10
-153.0
 20
388.3
 10
-153.0
 20
466.8
 10
-87.10000000000001
 20
466.8
 10
-82.5
 20
466.1
 10
-77.60000000000001
 20
463.6
 10
-73.7
 20
459.7
 10
-71.2
 20
454.7
 10
-70.3
 20
449.3
 10
-71.10000000000001
 20
443.9
 10
-73.7
 20
438.9
 10
-77.60000000000001
 20
435.0
 10
-82.5
 20
432.5
 10
-87.10000000000001
 20
431.8
  0
LWPOLYLINE
  5
7C
330
1F
100
AcDbEntity
  8
met1
100
AcDbPolyline
 90
       26
 70
     1
 43
0.0
 10
-87.10000000000001
 20
604.8000000000001
 10
-153.0
 20
604.8000000000001
 10
-153.0
 20
683.3000000000001
 10
-152.3
 20
687.9
 10
-149.8
 20
692.8000000000001
 10
-145.9
 20
696.7
 10
-140.9
 20
699.3000000000001
 10
-135.5
 20
700.1
 10
-130.1
 20
699.2
 10
-125.1
 20
696.7
 10
-121.2
 20
692.8000000000001
 10
-118.7
 20
687.9
 10
-118.0
 20
683.3000000000001
 10
-118.0
 20
675.0
 10
-95.5
 20
639.8000000000001
 10
-87.10000000000001
 20
639.8000000000001
 10
-82.5
 20
639.1
 10
-77.60000000000001
 20
636.6
 10
-73.7
 20
632.7
 10
-71.10000000000001
 20
627.7
 10
-70.3
 20
622.3000000000001
 10
-71.2
 20
616.9
 10
-73.7
 20
611.9
 10
-77.60000000000001
 20
608.0
 10
-82.5
 20
605.5
 10
-87.10000000000001
 20
604.8000000000001
  0
LWPOLYLINE
  5
7D
330
1F
100
AcDbEntity
  8
met1
100
AcDbPolyline
 90
       95
 70
     1
 43
0.0
 10
-115.6
 20
832.5
 10
-117.8
 20
830.3000000000001
 10
-118.6
 20
829.1
 10
-119.8
 20
827.5
 10
-120.6
 20
825.5
 10
-121.4
 20
823.9
 10
-121.8
 20
822.3000000000001
 10
-122.6
 20
818.3000000000001
 10
-122.6
 20
810.3000000000001
 10
-121.8
 20
806.3000000000001
 10
-121.0
 20
803.9
 10
-121.0
 20
804.3000000000001
 10
-121.4
 20
805.9
 10
-121.4
 20
807.9
 10
-121.8
 20
809.5
 10
-121.8
 20
811.1
 10
-121.4
 20
812.7
 10
-121.4
 20
814.3000000000001
 10
-121.0
 20
815.9
 10
-120.6
 20
817.1
 10
-119.8
 20
818.7
 10
-119.4
 20
819.9
 10
-118.6
 20
821.5
 10
-117.0
 20
823.9
 10
-113.4
 20
827.5
 10
-111.0
 20
829.1
 10
-109.4
 20
829.9
 10
-108.2
 20
830.7
 10
-106.6
 20
831.5
 10
-105.4
 20
831.5
 10
-104.6
 20
824.3000000000001
 10
-103.8
 20
821.1
 10
-103.0
 20
817.5
 10
-102.2
 20
814.3000000000001
 10
-101.0
 20
811.1
 10
-100.2
 20
807.9
 10
-99.0
 20
805.1
 10
-97.4
 20
802.3000000000001
 10
-96.2
 20
799.5
 10
-94.60000000000001
 20
797.1
 10
-95.4
 20
799.1
 10
-96.60000000000001
 20
801.5
 10
-97.4
 20
803.9
 10
-98.2
 20
805.9
 10
-98.60000000000001
 20
808.3000000000001
 10
-99.4
 20
811.1
 10
-99.8
 20
813.5
 10
-100.6
 20
819.1
 10
-100.6
 20
821.9
 10
-101.0
 20
824.7
 10
-101.4
 20
830.3000000000001
 10
-101.4
 20
832.3000000000001
 10
-100.6
 20
831.9
 10
-95.4
 20
830.7
 10
-90.2
 20
830.3000000000001
 10
-84.60000000000001
 20
830.3000000000001
 10
-81.4
 20
830.7
 10
-82.60000000000001
 20
828.3000000000001
 10
-83.0
 20
826.3000000000001
 10
-83.8
 20
824.7
 10
-83.8
 20
822.7
 10
-84.2
 20
821.1
 10
-84.2
 20
819.1
 10
-83.8
 20
817.1
 10
-83.8
 20
815.5
 10
-83.0
 20
813.5
 10
-82.60000000000001
 20
811.9
 10
-81.8
 20
809.9
 10
-81.0
 20
808.3000000000001
 10
-79.8
 20
806.3000000000001
 10
-79.0
 20
804.7
 10
-77.8
 20
802.7
 10
-75.0
 20
799.9
 10
-75.8
 20
801.1
 10
-77.0
 20
802.7
 10
-77.8
 20
804.3000000000001
 10
-78.60000000000001
 20
805.5
 10
-79.4
 20
808.7
 10
-79.8
 20
809.9
 10
-80.2
 20
811.5
 10
-80.2
 20
813.1
 10
-80.60000000000001
 20
814.7
 10
-80.2
 20
816.3000000000001
 10
-80.2
 20
817.5
 10
-79.8
 20
819.1
 10
-79.8
 20
820.7
 10
-79.4
 20
822.3000000000001
 10
-79.0
 20
823.5
 10
-77.4
 20
825.9
 10
-77.0
 20
827.1
 10
-75.8
 20
828.3000000000001
 10
-74.2
 20
830.7
 10
-73.0
 20
831.5
 10
-72.0
 20
832.5
 10
-115.6
 20
832.5
  0
LWPOLYLINE
  5
7E
330
1F
100
AcDbEntity
  8
met1
100
AcDbPolyline
 90
       41
 70
     1
 43
0.0
 10
1112.7
 20
677.54
 10
1112.7
 20
683.708
 10
1113.534
 20
686.208
 10
1114.368
 20
687.874
 10
1116.034
 20
689.54
 10
1117.7
 20
690.374
 10
1123.034
 20
690.374
 10
1124.7
 20
689.54
 10
1126.368
 20
687.874
 10
1127.2
 20
686.208
 10
1127.2
 20
684.208
 10
1125.2
 20
684.208
 10
1124.368
 20
685.874
 10
1122.7
 20
687.54
 10
1121.034
 20
688.374
 10
1119.7
 20
688.374
 10
1118.034
 20
687.54
 10
1116.368
 20
685.874
 10
1115.534
 20
684.208
 10
1114.7
 20
681.708
 10
1114.7
 20
679.54
 10
1115.534
 20
677.04
 10
1116.368
 20
675.374
 10
1118.034
 20
673.708
 10
1119.7
 20
672.874
 10
1121.034
 20
672.874
 10
1122.7
 20
673.708
 10
1124.368
 20
675.374
 10
1125.2
 20
677.04
 10
1125.2
 20
677.54
 10
1121.034
 20
677.54
 10
1121.034
 20
679.54
 10
1127.2
 20
679.54
 10
1127.2
 20
675.04
 10
1126.368
 20
673.374
 10
1124.7
 20
671.708
 10
1123.034
 20
670.874
 10
1117.7
 20
670.874
 10
1116.034
 20
671.708
 10
1114.368
 20
673.374
 10
1113.534
 20
675.04
  0
LWPOLYLINE
  5
7F
330
1F
100
AcDbEntity
  8
met1
100
AcDbPolyline
 90
       10
 70
     1
 43
0.0
 10
1133.534
 20
670.874
 10
1133.534
 20
690.374
 10
1135.534
 20
690.374
 10
1145.2
 20
675.874
 10
1145.2
 20
690.374
 10
1147.2
 20
690.374
 10
1147.2
 20
670.874
 10
1145.2
 20
670.874
 10
1135.534
 20
685.374
 10
1135.534
 20
670.874
  0
LWPOLYLINE
  5
80
330
1F
100
AcDbEntity
  8
met1
100
AcDbPolyline
 90
       27
 70
     1
 43
0.0
 10
1153.534
 20
670.874
 10
1161.368
 20
670.874
 10
1163.868
 20
671.708
 10
1165.534
 20
673.374
 10
1166.368
 20
675.04
 10
1167.2
 20
677.54
 10
1167.2
 20
683.708
 10
1166.368
 20
686.208
 10
1165.534
 20
687.874
 10
1163.868
 20
689.54
 10
1161.368
 20
690.374
 10
1159.368
 20
690.374
 10
1159.368
 20
688.374
 10
1161.868
 20
687.54
 10
1163.534
 20
685.874
 10
1164.368
 20
684.208
 10
1165.2
 20
681.708
 10
1165.2
 20
679.54
 10
1164.368
 20
677.04
 10
1163.534
 20
675.374
 10
1161.868
 20
673.708
 10
1159.368
 20
672.874
 10
1155.534
 20
672.874
 10
1155.534
 20
688.374
 10
1159.368
 20
688.374
 10
1159.368
 20
690.374
 10
1153.534
 20
690.374
  0
LWPOLYLINE
  5
81
330
1F
100
AcDbEntity
  8
met1
100
AcDbPolyline
 90
       27
 70
     1
 43
0.0
 10
1153.534
 20
870.874
 10
1161.368
 20
870.874
 10
1163.868
 20
871.708
 10
1165.534
 20
873.374
 10
1166.368
 20
875.04
 10
1167.2
 20
877.54
 10
1167.2
 20
883.708
 10
1166.368
 20
886.208
 10
1165.534
 20
887.874
 10
1163.868
 20
889.54
 10
1161.368
 20
890.374
 10
1159.368
 20
890.374
 10
1159.368
 20
888.374
 10
1161.868
 20
887.54
 10
1163.534
 20
885.874
 10
1164.368
 20
884.208
 10
1165.2
 20
881.708
 10
1165.2
 20
879.54
 10
1164.368
 20
877.04
 10
1163.534
 20
875.374
 10
1161.868
 20
873.708
 10
1159.368
 20
872.874
 10
1155.534
 20
872.874
 10
1155.534
 20
888.374
 10
1159.368
 20
888.374
 10
1159.368
 20
890.374
 10
1153.534
 20
890.374
  0
LWPOLYLINE
  5
82
330
1F
100
AcDbEntity
  8
met1
100
AcDbPolyline
 90
       10
 70
     1
 43
0.0
 10
1133.534
 20
870.874
 10
1133.534
 20
890.374
 10
1135.534
 20
890.374
 10
1145.2
 20
875.874
 10
1145.2
 20
890.374
 10
1147.2
 20
890.374
 10
1147.2
 20
870.874
 10
1145.2
 20
870.874
 10
1135.534
 20
885.374
 10
1135.534
 20
870.874
  0
LWPOLYLINE
  5
83
330
1F
100
AcDbEntity
  8
met1
100
AcDbPolyline
 90
       41
 70
     1
 43
0.0
 10
1112.7
 20
877.54
 10
1112.7
 20
883.708
 10
1113.534
 20
886.208
 10
1114.368
 20
887.874
 10
1116.034
 20
889.54
 10
1117.7
 20
890.374
 10
1123.034
 20
890.374
 10
1124.7
 20
889.54
 10
1126.368
 20
887.874
 10
1127.2
 20
886.208
 10
1127.2
 20
884.208
 10
1125.2
 20
884.208
 10
1124.368
 20
885.874
 10
1122.7
 20
887.54
 10
1121.034
 20
888.374
 10
1119.7
 20
888.374
 10
1118.034
 20
887.54
 10
1116.368
 20
885.874
 10
1115.534
 20
884.208
 10
1114.7
 20
881.708
 10
1114.7
 20
879.54
 10
1115.534
 20
877.04
 10
1116.368
 20
875.374
 10
1118.034
 20
873.708
 10
1119.7
 20
872.874
 10
1121.034
 20
872.874
 10
1122.7
 20
873.708
 10
1124.368
 20
875.374
 10
1125.2
 20
877.04
 10
1125.2
 20
877.54
 10
1121.034
 20
877.54
 10
1121.034
 20
879.54
 10
1127.2
 20
879.54
 10
1127.2
 20
875.04
 10
1126.368
 20
873.374
 10
1124.7
 20
871.708
 10
1123.034
 20
870.874
 10
1117.7
 20
870.874
 10
1116.034
 20
871.708
 10
1114.368
 20
873.374
 10
1113.534
 20
875.04
  0
LWPOLYLINE
  5
84
330
1F
100
AcDbEntity
  8
met1
100
AcDbPolyline
 90
       27
 70
     1
 43
0.0
 10
-271.902
 20
386.572
 10
-264.068
 20
386.572
 10
-261.568
 20
387.406
 10
-259.902
 20
389.072
 10
-259.068
 20
390.738
 10
-258.236
 20
393.238
 10
-258.236
 20
399.406
 10
-259.068
 20
401.906
 10
-259.902
 20
403.572
 10
-261.568
 20
405.238
 10
-264.068
 20
406.072
 10
-266.068
 20
406.072
 10
-266.068
 20
404.072
 10
-263.568
 20
403.238
 10
-261.902
 20
401.572
 10
-261.068
 20
399.906
 10
-260.236
 20
397.406
 10
-260.236
 20
395.238
 10
-261.068
 20
392.738
 10
-261.902
 20
391.072
 10
-263.568
 20
389.406
 10
-266.068
 20
388.572
 10
-269.902
 20
388.572
 10
-269.902
 20
404.072
 10
-266.068
 20
404.072
 10
-266.068
 20
406.072
 10
-271.902
 20
406.072
  0
LWPOLYLINE
  5
85
330
1F
100
AcDbEntity
  8
met1
100
AcDbPolyline
 90
       27
 70
     1
 43
0.0
 10
-274.036
 20
662.106
 10
-266.202
 20
662.106
 10
-263.702
 20
662.94
 10
-262.036
 20
664.606
 10
-261.202
 20
666.272
 10
-260.37
 20
668.772
 10
-260.37
 20
674.94
 10
-261.202
 20
677.44
 10
-262.036
 20
679.106
 10
-263.702
 20
680.772
 10
-266.202
 20
681.606
 10
-268.202
 20
681.606
 10
-268.202
 20
679.606
 10
-265.702
 20
678.772
 10
-264.036
 20
677.106
 10
-263.202
 20
675.44
 10
-262.37
 20
672.94
 10
-262.37
 20
670.772
 10
-263.202
 20
668.272
 10
-264.036
 20
666.606
 10
-265.702
 20
664.94
 10
-268.202
 20
664.106
 10
-272.036
 20
664.106
 10
-272.036
 20
679.606
 10
-268.202
 20
679.606
 10
-268.202
 20
681.606
 10
-274.036
 20
681.606
  0
LWPOLYLINE
  5
86
330
1F
100
AcDbEntity
  8
met1
100
AcDbPolyline
 90
       10
 70
     1
 43
0.0
 10
-291.902
 20
386.572
 10
-291.902
 20
406.072
 10
-289.902
 20
406.072
 10
-280.236
 20
391.572
 10
-280.236
 20
406.072
 10
-278.236
 20
406.072
 10
-278.236
 20
386.572
 10
-280.236
 20
386.572
 10
-289.902
 20
401.072
 10
-289.902
 20
386.572
  0
LWPOLYLINE
  5
87
330
1F
100
AcDbEntity
  8
met1
100
AcDbPolyline
 90
       10
 70
     1
 43
0.0
 10
-294.036
 20
662.106
 10
-294.036
 20
681.606
 10
-292.036
 20
681.606
 10
-282.37
 20
667.106
 10
-282.37
 20
681.606
 10
-280.37
 20
681.606
 10
-280.37
 20
662.106
 10
-282.37
 20
662.106
 10
-292.036
 20
676.606
 10
-292.036
 20
662.106
  0
LWPOLYLINE
  5
88
330
1F
100
AcDbEntity
  8
met1
100
AcDbPolyline
 90
       41
 70
     1
 43
0.0
 10
-312.736
 20
393.238
 10
-312.736
 20
399.406
 10
-311.902
 20
401.906
 10
-311.068
 20
403.572
 10
-309.402
 20
405.238
 10
-307.736
 20
406.072
 10
-302.402
 20
406.072
 10
-300.736
 20
405.238
 10
-299.068
 20
403.572
 10
-298.236
 20
401.906
 10
-298.236
 20
399.906
 10
-300.236
 20
399.906
 10
-301.068
 20
401.572
 10
-302.736
 20
403.238
 10
-304.402
 20
404.072
 10
-305.736
 20
404.072
 10
-307.402
 20
403.238
 10
-309.068
 20
401.572
 10
-309.902
 20
399.906
 10
-310.736
 20
397.406
 10
-310.736
 20
395.238
 10
-309.902
 20
392.738
 10
-309.068
 20
391.072
 10
-307.402
 20
389.406
 10
-305.736
 20
388.572
 10
-304.402
 20
388.572
 10
-302.736
 20
389.406
 10
-301.068
 20
391.072
 10
-300.236
 20
392.738
 10
-300.236
 20
393.238
 10
-304.402
 20
393.238
 10
-304.402
 20
395.238
 10
-298.236
 20
395.238
 10
-298.236
 20
390.738
 10
-299.068
 20
389.072
 10
-300.736
 20
387.406
 10
-302.402
 20
386.572
 10
-307.736
 20
386.572
 10
-309.402
 20
387.406
 10
-311.068
 20
389.072
 10
-311.902
 20
390.738
  0
LWPOLYLINE
  5
89
330
1F
100
AcDbEntity
  8
met1
100
AcDbPolyline
 90
       41
 70
     1
 43
0.0
 10
-314.87
 20
668.772
 10
-314.87
 20
674.94
 10
-314.036
 20
677.44
 10
-313.202
 20
679.106
 10
-311.536
 20
680.772
 10
-309.87
 20
681.606
 10
-304.536
 20
681.606
 10
-302.87
 20
680.772
 10
-301.202
 20
679.106
 10
-300.37
 20
677.44
 10
-300.37
 20
675.44
 10
-302.37
 20
675.44
 10
-303.202
 20
677.106
 10
-304.87
 20
678.772
 10
-306.536
 20
679.606
 10
-307.87
 20
679.606
 10
-309.536
 20
678.772
 10
-311.202
 20
677.106
 10
-312.036
 20
675.44
 10
-312.87
 20
672.94
 10
-312.87
 20
670.772
 10
-312.036
 20
668.272
 10
-311.202
 20
666.606
 10
-309.536
 20
664.94
 10
-307.87
 20
664.106
 10
-306.536
 20
664.106
 10
-304.87
 20
664.94
 10
-303.202
 20
666.606
 10
-302.37
 20
668.272
 10
-302.37
 20
668.772
 10
-306.536
 20
668.772
 10
-306.536
 20
670.772
 10
-300.37
 20
670.772
 10
-300.37
 20
666.272
 10
-301.202
 20
664.606
 10
-302.87
 20
662.94
 10
-304.536
 20
662.106
 10
-309.87
 20
662.106
 10
-311.536
 20
662.94
 10
-313.202
 20
664.606
 10
-314.036
 20
666.272
  0
LWPOLYLINE
  5
8A
330
1F
100
AcDbEntity
  8
met1
100
AcDbPolyline
 90
       28
 70
     1
 43
0.0
 10
646.0
 20
193.502
 10
665.5
 20
193.502
 10
665.5
 20
201.336
 10
664.666
 20
203.836
 10
663.0
 20
205.502
 10
661.3340000000001
 20
206.336
 10
658.8340000000001
 20
207.168
 10
656.8340000000001
 20
207.168
 10
656.8340000000001
 20
205.168
 10
659.3340000000001
 20
204.336
 10
661.0
 20
203.502
 10
662.666
 20
201.836
 10
663.5
 20
199.336
 10
663.5
 20
195.502
 10
648.0
 20
195.502
 10
648.0
 20
199.336
 10
648.8340000000001
 20
201.836
 10
650.5
 20
203.502
 10
652.166
 20
204.336
 10
654.666
 20
205.168
 10
656.8340000000001
 20
205.168
 10
656.8340000000001
 20
207.168
 10
652.666
 20
207.168
 10
650.166
 20
206.336
 10
648.5
 20
205.502
 10
646.8340000000001
 20
203.836
 10
646.0
 20
201.336
 10
646.0
 20
199.336
  0
LWPOLYLINE
  5
8B
330
1F
100
AcDbEntity
  8
met1
100
AcDbPolyline
 90
       10
 70
     1
 43
0.0
 10
665.5
 20
173.502
 10
646.0
 20
173.502
 10
646.0
 20
175.502
 10
660.5
 20
185.168
 10
646.0
 20
185.168
 10
646.0
 20
187.168
 10
665.5
 20
187.168
 10
665.5
 20
185.168
 10
651.0
 20
175.502
 10
665.5
 20
175.502
  0
LWPOLYLINE
  5
8C
330
1F
100
AcDbEntity
  8
met1
100
AcDbPolyline
 90
       41
 70
     1
 43
0.0
 10
658.8340000000001
 20
152.668
 10
652.666
 20
152.668
 10
650.166
 20
153.502
 10
648.5
 20
154.336
 10
646.8340000000001
 20
156.002
 10
646.0
 20
157.668
 10
646.0
 20
163.002
 10
646.8340000000001
 20
164.668
 10
648.5
 20
166.336
 10
650.166
 20
167.168
 10
652.166
 20
167.168
 10
652.166
 20
165.168
 10
650.5
 20
164.336
 10
648.8340000000001
 20
162.668
 10
648.0
 20
161.002
 10
648.0
 20
159.668
 10
648.8340000000001
 20
158.002
 10
650.5
 20
156.336
 10
652.166
 20
155.502
 10
654.666
 20
154.668
 10
656.8340000000001
 20
154.668
 10
659.3340000000001
 20
155.502
 10
661.0
 20
156.336
 10
662.666
 20
158.002
 10
663.5
 20
159.668
 10
663.5
 20
161.002
 10
662.666
 20
162.668
 10
661.0
 20
164.336
 10
659.3340000000001
 20
165.168
 10
658.8340000000001
 20
165.168
 10
658.8340000000001
 20
161.002
 10
656.8340000000001
 20
161.002
 10
656.8340000000001
 20
167.168
 10
661.3340000000001
 20
167.168
 10
663.0
 20
166.336
 10
664.666
 20
164.668
 10
665.5
 20
163.002
 10
665.5
 20
157.668
 10
664.666
 20
156.002
 10
663.0
 20
154.336
 10
661.3340000000001
 20
153.502
  0
LWPOLYLINE
  5
8D
330
1F
100
AcDbEntity
  8
met1
100
AcDbPolyline
 90
       18
 70
     1
 43
0.0
 10
-356.666
 20
526.0070000000001
 10
-356.666
 20
549.34
 10
-343.333
 20
549.34
 10
-339.999
 20
546.0
 10
-339.999
 20
539.34
 10
-343.333
 20
536.006
 10
-348.333
 20
536.006
 10
-339.999
 20
527.674
 10
-339.999
 20
526.0070000000001
 10
-343.333
 20
526.0070000000001
 10
-353.333
 20
536.006
 10
-353.333
 20
539.34
 10
-344.999
 20
539.34
 10
-343.333
 20
541.006
 10
-343.333
 20
544.34
 10
-344.999
 20
546.0
 10
-353.333
 20
546.0
 10
-353.333
 20
526.0070000000001
  0
LWPOLYLINE
  5
8E
330
1F
100
AcDbEntity
  8
met1
100
AcDbPolyline
 90
       10
 70
     1
 43
0.0
 10
-336.666
 20
526.0070000000001
 10
-336.666
 20
549.34
 10
-321.667
 20
549.34
 10
-321.667
 20
546.0
 10
-333.333
 20
546.0
 10
-333.333
 20
539.34
 10
-326.667
 20
539.34
 10
-326.667
 20
536.006
 10
-333.333
 20
536.006
 10
-333.333
 20
526.0070000000001
  0
LWPOLYLINE
  5
8F
330
1F
100
AcDbEntity
  8
met1
100
AcDbPolyline
 90
       18
 70
     1
 43
0.0
 10
-293.333
 20
536.006
 10
-296.666
 20
537.674
 10
-293.333
 20
541.006
 10
-283.333
 20
541.006
 10
-279.999
 20
537.674
 10
-279.999
 20
529.34
 10
-283.333
 20
526.0070000000001
 10
-293.333
 20
526.0070000000001
 10
-296.666
 20
529.34
 10
-296.666
 20
537.674
 10
-293.333
 20
536.006
 10
-293.333
 20
531.006
 10
-291.667
 20
529.34
 10
-284.999
 20
529.34
 10
-283.333
 20
531.006
 10
-283.333
 20
536.006
 10
-284.999
 20
537.674
 10
-291.667
 20
537.674
  0
LWPOLYLINE
  5
90
330
1F
100
AcDbEntity
  8
met1
100
AcDbPolyline
 90
       14
 70
     1
 43
0.0
 10
-259.999
 20
541.006
 10
-263.333
 20
541.006
 10
-263.333
 20
531.006
 10
-264.999
 20
529.34
 10
-271.667
 20
529.34
 10
-273.333
 20
531.006
 10
-273.333
 20
541.006
 10
-276.666
 20
541.006
 10
-276.666
 20
529.34
 10
-273.333
 20
526.0070000000001
 10
-264.999
 20
526.0070000000001
 10
-263.333
 20
527.674
 10
-263.333
 20
526.0070000000001
 10
-259.999
 20
526.0070000000001
  0
LWPOLYLINE
  5
91
330
1F
100
AcDbEntity
  8
met1
100
AcDbPolyline
 90
       12
 70
     1
 43
0.0
 10
-249.999
 20
526.0070000000001
 10
-246.667
 20
526.0070000000001
 10
-246.667
 20
537.674
 10
-243.333
 20
537.674
 10
-243.333
 20
541.006
 10
-246.667
 20
541.006
 10
-246.667
 20
544.34
 10
-249.999
 20
544.34
 10
-249.999
 20
541.006
 10
-253.333
 20
541.006
 10
-253.333
 20
537.674
 10
-249.999
 20
537.674
  0
ENDSEC
  0
SECTION
  2
OBJECTS
  0
DICTIONARY
  5
C
330
0
100
AcDbDictionary
281
     1
  3
ACAD_GROUP
350
D
  3
ACAD_LAYOUT
350
1A
  3
ACAD_MLEADERSTYLE
350
93
  3
ACAD_MLINESTYLE
350
17
  3
ACAD_PLOTSETTINGS
350
19
  3
ACAD_PLOTSTYLENAME
350
E
  3
ACAD_SCALELIST
350
3B
  3
ACAD_TABLESTYLE
350
92
  3
ACAD_VISUALSTYLE
350
2A
  0
DICTIONARY
  5
D
102
{ACAD_REACTORS
330
C
102
}
330
C
100
AcDbDictionary
281
     1
  0
DICTIONARY
  5
1A
102
{ACAD_REACTORS
330
C
102
}
330
C
100
AcDbDictionary
281
     1
  3
Layout1
350
1E
  3
Layout2
350
26
  3
Model
350
22
  0
DICTIONARY
  5
93
102
{ACAD_REACTORS
330
C
102
}
330
C
100
AcDbDictionary
281
     1
  0
DICTIONARY
  5
17
102
{ACAD_REACTORS
330
C
102
}
330
C
100
AcDbDictionary
281
     1
  3
Standard
350
18
  0
DICTIONARY
  5
19
102
{ACAD_REACTORS
330
C
102
}
330
C
100
AcDbDictionary
281
     1
  0
ACDBDICTIONARYWDFLT
  5
E
102
{ACAD_REACTORS
330
C
102
}
330
C
100
AcDbDictionary
281
     1
  3
Normal
350
F
100
AcDbDictionaryWithDefault
340
F
  0
DICTIONARY
  5
3B
102
{ACAD_REACTORS
330
C
102
}
330
C
100
AcDbDictionary
281
     1
  3
A0
350
3C
  3
A1
350
3D
  3
A2
350
3E
  3
A3
350
3F
  3
A4
350
40
  3
A5
350
41
  3
A6
350
42
  3
A7
350
43
  3
A8
350
44
  3
A9
350
45
  3
B0
350
46
  3
B1
350
47
  3
B2
350
48
  3
B3
350
49
  3
B4
350
4A
  3
B5
350
4B
  3
B6
350
4C
  3
B7
350
4D
  3
B8
350
4E
  3
B9
350
4F
  3
C0
350
50
  3
C1
350
51
  3
C2
350
52
  3
C3
350
53
  3
C4
350
54
  3
C5
350
55
  3
C6
350
56
  3
C7
350
57
  3
C8
350
58
  3
C9
350
59
  3
D0
350
5A
  3
D1
350
5B
  3
D2
350
5C
  0
DICTIONARY
  5
92
102
{ACAD_REACTORS
330
C
102
}
330
C
100
AcDbDictionary
281
     1
  0
DICTIONARY
  5
2A
102
{ACAD_REACTORS
330
C
102
}
330
C
100
AcDbDictionary
281
     1
  3
2dWireframe
350
2F
  3
3D Hidden
350
31
  3
3dWireframe
350
30
  3
Basic
350
32
  3
Brighten
350
36
  3
ColorChange
350
3A
  3
Conceptual
350
34
  3
Dim
350
35
  3
Facepattern
350
39
  3
Flat
350
2B
  3
FlatWithEdges
350
2C
  3
Gouraud
350
2D
  3
GouraudWithEdges
350
2E
  3
Linepattern
350
38
  3
Realistic
350
33
  3
Thicken
350
37
  0
LAYOUT
  5
1E
102
{ACAD_REACTORS
330
1A
102
}
330
1A
100
AcDbPlotSettings
  1

  2
none_device
  4

  6

 40
0.0
 41
0.0
 42
0.0
 43
0.0
 44
0.0
 45
0.0
 46
0.0
 47
0.0
 48
0.0
 49
0.0
140
0.0
141
0.0
142
1.0
143
1.0
 70
   688
 72
     0
 73
     0
 74
     5
  7

 75
    16
 76
     0
 77
     2
 78
   300
147
1.0
148
0.0
149
0.0
100
AcDbLayout
  1
Layout1
 70
     1
 71
     1
 10
0.0
 20
0.0
 11
12.0
 21
9.0
 12
0.0
 22
0.0
 32
0.0
 14
1.000000000000000E+20
 24
1.000000000000000E+20
 34
1.000000000000000E+20
 15
-1.000000000000000E+20
 25
-1.000000000000000E+20
 35
-1.000000000000000E+20
146
0.0
 13
0.0
 23
0.0
 33
0.0
 16
1.0
 26
0.0
 36
0.0
 17
0.0
 27
1.0
 37
0.0
 76
     0
330
1B
  0
LAYOUT
  5
26
102
{ACAD_REACTORS
330
1A
102
}
330
1A
100
AcDbPlotSettings
  1

  2
none_device
  4

  6

 40
0.0
 41
0.0
 42
0.0
 43
0.0
 44
0.0
 45
0.0
 46
0.0
 47
0.0
 48
0.0
 49
0.0
140
0.0
141
0.0
142
1.0
143
1.0
 70
   688
 72
     0
 73
     0
 74
     5
  7

 75
    16
 76
     0
 77
     2
 78
   300
147
1.0
148
0.0
149
0.0
100
AcDbLayout
  1
Layout2
 70
     1
 71
     2
 10
0.0
 20
0.0
 11
0.0
 21
0.0
 12
0.0
 22
0.0
 32
0.0
 14
0.0
 24
0.0
 34
0.0
 15
0.0
 25
0.0
 35
0.0
146
0.0
 13
0.0
 23
0.0
 33
0.0
 16
1.0
 26
0.0
 36
0.0
 17
0.0
 27
1.0
 37
0.0
 76
     0
330
23
  0
LAYOUT
  5
22
102
{ACAD_REACTORS
330
1A
102
}
330
1A
100
AcDbPlotSettings
  1

  2
none_device
  4

  6

 40
0.0
 41
0.0
 42
0.0
 43
0.0
 44
0.0
 45
0.0
 46
0.0
 47
0.0
 48
0.0
 49
0.0
140
0.0
141
0.0
142
1.0
143
1.0
 70
  1712
 72
     0
 73
     0
 74
     0
  7

 75
     0
 76
     0
 77
     2
 78
   300
147
1.0
148
0.0
149
0.0
100
AcDbLayout
  1
Model
 70
     1
 71
     0
 10
0.0
 20
0.0
 11
12.0
 21
9.0
 12
0.0
 22
0.0
 32
0.0
 14
1.000000000000000E+20
 24
1.000000000000000E+20
 34
1.000000000000000E+20
 15
-1.000000000000000E+20
 25
-1.000000000000000E+20
 35
-1.000000000000000E+20
146
0.0
 13
0.0
 23
0.0
 33
0.0
 16
1.0
 26
0.0
 36
0.0
 17
0.0
 27
1.0
 37
0.0
 76
     0
330
1F
331
29
  0
MLINESTYLE
  5
18
102
{ACAD_REACTORS
330
17
102
}
330
17
100
AcDbMlineStyle
  2
Standard
 70
     0
  3

 62
   256
 51
90.0
 52
90.0
 71
     2
 49
0.5
 62
   256
  6
BYLAYER
 49
-0.5
 62
   256
  6
BYLAYER
  0
ACDBPLACEHOLDER
  5
F
102
{ACAD_REACTORS
330
E
102
}
330
E
  0
SCALE
  5
3C
102
{ACAD_REACTORS
330
3B
102
}
330
3B
100
AcDbScale
 70
     0
300
1:1
140
1.0
141
1.0
290
     1
  0
SCALE
  5
3D
102
{ACAD_REACTORS
330
3B
102
}
330
3B
100
AcDbScale
 70
     0
300
1:2
140
1.0
141
2.0
290
     0
  0
SCALE
  5
3E
102
{ACAD_REACTORS
330
3B
102
}
330
3B
100
AcDbScale
 70
     0
300
1:4
140
1.0
141
4.0
290
     0
  0
SCALE
  5
3F
102
{ACAD_REACTORS
330
3B
102
}
330
3B
100
AcDbScale
 70
     0
300
1:5
140
1.0
141
5.0
290
     0
  0
SCALE
  5
40
102
{ACAD_REACTORS
330
3B
102
}
330
3B
100
AcDbScale
 70
     0
300
1:8
140
1.0
141
8.0
290
     0
  0
SCALE
  5
41
102
{ACAD_REACTORS
330
3B
102
}
330
3B
100
AcDbScale
 70
     0
300
1:10
140
1.0
141
10.0
290
     0
  0
SCALE
  5
42
102
{ACAD_REACTORS
330
3B
102
}
330
3B
100
AcDbScale
 70
     0
300
1:16
140
1.0
141
16.0
290
     0
  0
SCALE
  5
43
102
{ACAD_REACTORS
330
3B
102
}
330
3B
100
AcDbScale
 70
     0
300
1:20
140
1.0
141
20.0
290
     0
  0
SCALE
  5
44
102
{ACAD_REACTORS
330
3B
102
}
330
3B
100
AcDbScale
 70
     0
300
1:30
140
1.0
141
30.0
290
     0
  0
SCALE
  5
45
102
{ACAD_REACTORS
330
3B
102
}
330
3B
100
AcDbScale
 70
     0
300
1:40
140
1.0
141
40.0
290
     0
  0
SCALE
  5
46
102
{ACAD_REACTORS
330
3B
102
}
330
3B
100
AcDbScale
 70
     0
300
1:50
140
1.0
141
50.0
290
     0
  0
SCALE
  5
47
102
{ACAD_REACTORS
330
3B
102
}
330
3B
100
AcDbScale
 70
     0
300
1:100
140
1.0
141
100.0
290
     0
  0
SCALE
  5
48
102
{ACAD_REACTORS
330
3B
102
}
330
3B
100
AcDbScale
 70
     0
300
2:1
140
2.0
141
1.0
290
     0
  0
SCALE
  5
49
102
{ACAD_REACTORS
330
3B
102
}
330
3B
100
AcDbScale
 70
     0
300
4:1
140
4.0
141
1.0
290
     0
  0
SCALE
  5
4A
102
{ACAD_REACTORS
330
3B
102
}
330
3B
100
AcDbScale
 70
     0
300
8:1
140
8.0
141
1.0
290
     0
  0
SCALE
  5
4B
102
{ACAD_REACTORS
330
3B
102
}
330
3B
100
AcDbScale
 70
     0
300
10:1
140
10.0
141
1.0
290
     0
  0
SCALE
  5
4C
102
{ACAD_REACTORS
330
3B
102
}
330
3B
100
AcDbScale
 70
     0
300
100:1
140
100.0
141
1.0
290
     0
  0
SCALE
  5
4D
102
{ACAD_REACTORS
330
3B
102
}
330
3B
100
AcDbScale
 70
     0
300
1/128" = 1'-0"
140
0.0078125
141
12.0
290
     0
  0
SCALE
  5
4E
102
{ACAD_REACTORS
330
3B
102
}
330
3B
100
AcDbScale
 70
     0
300
1/64" = 1'-0"
140
0.015625
141
12.0
290
     0
  0
SCALE
  5
4F
102
{ACAD_REACTORS
330
3B
102
}
330
3B
100
AcDbScale
 70
     0
300
1/32" = 1'-0"
140
0.03125
141
12.0
290
     0
  0
SCALE
  5
50
102
{ACAD_REACTORS
330
3B
102
}
330
3B
100
AcDbScale
 70
     0
300
1/16" = 1'-0"
140
0.0625
141
12.0
290
     0
  0
SCALE
  5
51
102
{ACAD_REACTORS
330
3B
102
}
330
3B
100
AcDbScale
 70
     0
300
3/32" = 1'-0"
140
0.09375
141
12.0
290
     0
  0
SCALE
  5
52
102
{ACAD_REACTORS
330
3B
102
}
330
3B
100
AcDbScale
 70
     0
300
1/8" = 1'-0"
140
0.125
141
12.0
290
     0
  0
SCALE
  5
53
102
{ACAD_REACTORS
330
3B
102
}
330
3B
100
AcDbScale
 70
     0
300
3/16" = 1'-0"
140
0.1875
141
12.0
290
     0
  0
SCALE
  5
54
102
{ACAD_REACTORS
330
3B
102
}
330
3B
100
AcDbScale
 70
     0
300
1/4" = 1'-0"
140
0.25
141
12.0
290
     0
  0
SCALE
  5
55
102
{ACAD_REACTORS
330
3B
102
}
330
3B
100
AcDbScale
 70
     0
300
3/8" = 1'-0"
140
0.375
141
12.0
290
     0
  0
SCALE
  5
56
102
{ACAD_REACTORS
330
3B
102
}
330
3B
100
AcDbScale
 70
     0
300
1/2" = 1'-0"
140
0.5
141
12.0
290
     0
  0
SCALE
  5
57
102
{ACAD_REACTORS
330
3B
102
}
330
3B
100
AcDbScale
 70
     0
300
3/4" = 1'-0"
140
0.75
141
12.0
290
     0
  0
SCALE
  5
58
102
{ACAD_REACTORS
330
3B
102
}
330
3B
100
AcDbScale
 70
     0
300
1" = 1'-0"
140
1.0
141
12.0
290
     0
  0
SCALE
  5
59
102
{ACAD_REACTORS
330
3B
102
}
330
3B
100
AcDbScale
 70
     0
300
1-1/2" = 1'-0"
140
1.5
141
12.0
290
     0
  0
SCALE
  5
5A
102
{ACAD_REACTORS
330
3B
102
}
330
3B
100
AcDbScale
 70
     0
300
3" = 1'-0"
140
3.0
141
12.0
290
     0
  0
SCALE
  5
5B
102
{ACAD_REACTORS
330
3B
102
}
330
3B
100
AcDbScale
 70
     0
300
6" = 1'-0"
140
6.0
141
12.0
290
     0
  0
SCALE
  5
5C
102
{ACAD_REACTORS
330
3B
102
}
330
3B
100
AcDbScale
 70
     0
300
1'-0" = 1'-0"
140
12.0
141
12.0
290
     0
  0
VISUALSTYLE
  5
2F
102
{ACAD_REACTORS
330
2A
102
}
330
2A
100
AcDbVisualStyle
  2
2dWireframe
 70
     4
 71
     0
 72
     2
 73
     0
 90
        0
 40
-0.6
 41
-30.0
 62
     5
 63
     7
421
 16777215
 74
     1
 91
        4
 64
     7
 65
   257
 75
     1
175
     1
 42
1.0
 92
        0
 66
   257
 43
1.0
 76
     1
 77
     6
 78
     2
 67
     7
 79
     5
170
     0
171
     0
290
     0
174
     0
 93
        1
 44
0.0
173
     0
291
     0
 45
0.0
1001
ACAD
1000
AcDbSavedByObjectVersion
1070
     0
  0
VISUALSTYLE
  5
31
102
{ACAD_REACTORS
330
2A
102
}
330
2A
100
AcDbVisualStyle
  2
3D Hidden
 70
     6
 71
     1
 72
     2
 73
     2
 90
        0
 40
-0.6
 41
-30.0
 62
     5
 63
     7
421
 16777215
 74
     2
 91
        2
 64
     7
 65
   257
 75
     2
175
     1
 42
40.0
 92
        0
 66
   257
 43
1.0
 76
     1
 77
     6
 78
     2
 67
     7
 79
     3
170
     0
171
     0
290
     0
174
     0
 93
        1
 44
0.0
173
     0
291
     0
 45
0.0
1001
ACAD
1000
AcDbSavedByObjectVersion
1070
     0
  0
VISUALSTYLE
  5
30
102
{ACAD_REACTORS
330
2A
102
}
330
2A
100
AcDbVisualStyle
  2
3dWireframe
 70
     5
 71
     0
 72
     2
 73
     0
 90
        0
 40
-0.6
 41
-30.0
 62
     5
 63
     7
421
 16777215
 74
     1
 91
        4
 64
     7
 65
   257
 75
     1
175
     1
 42
1.0
 92
        0
 66
   257
 43
1.0
 76
     1
 77
     6
 78
     2
 67
     7
 79
     5
170
     0
171
     0
290
     0
174
     0
 93
        1
 44
0.0
173
     0
291
     0
 45
0.0
1001
ACAD
1000
AcDbSavedByObjectVersion
1070
     0
  0
VISUALSTYLE
  5
32
102
{ACAD_REACTORS
330
2A
102
}
330
2A
100
AcDbVisualStyle
  2
Basic
 70
     7
 71
     1
 72
     0
 73
     1
 90
        0
 40
-0.6
 41
-30.0
 62
     5
 63
     7
421
 16777215
 74
     0
 91
        4
 64
     7
 65
   257
 75
     1
175
     1
 42
1.0
 92
        8
 66
     7
 43
1.0
 76
     1
 77
     6
 78
     2
 67
     7
 79
     5
170
     0
171
     0
290
     0
174
     0
 93
        1
 44
0.0
173
     0
291
     1
 45
0.0
1001
ACAD
1000
AcDbSavedByObjectVersion
1070
     0
  0
VISUALSTYLE
  5
36
102
{ACAD_REACTORS
330
2A
102
}
330
2A
100
AcDbVisualStyle
  2
Brighten
 70
    12
 71
     2
 72
     2
 73
     0
 90
        0
 40
-0.6
 41
-30.0
 62
     5
 63
     7
421
 16777215
 74
     1
 91
        4
 64
     7
 65
   257
 75
     1
175
     1
 42
1.0
 92
        8
 66
     7
 43
1.0
 76
     1
 77
     6
 78
     2
 67
     7
 79
     5
170
     0
171
     0
290
     0
174
     0
 93
        1
 44
50.0
173
     0
291
     1
 45
0.0
1001
ACAD
1000
AcDbSavedByObjectVersion
1070
     0
  0
VISUALSTYLE
  5
3A
102
{ACAD_REACTORS
330
2A
102
}
330
2A
100
AcDbVisualStyle
  2
ColorChange
 70
    16
 71
     2
 72
     2
 73
     3
 90
        0
 40
-0.6
 41
-30.0
 62
     5
 63
     8
421
  8421504
 74
     1
 91
        4
 64
     7
 65
   257
 75
     1
175
     1
 42
1.0
 92
        8
 66
     8
424
  8421504
 43
1.0
 76
     1
 77
     6
 78
     2
 67
     7
 79
     5
170
     0
171
     0
290
     0
174
     0
 93
        1
 44
0.0
173
     0
291
     1
 45
0.0
1001
ACAD
1000
AcDbSavedByObjectVersion
1070
     0
  0
VISUALSTYLE
  5
34
102
{ACAD_REACTORS
330
2A
102
}
330
2A
100
AcDbVisualStyle
  2
Conceptual
 70
     9
 71
     3
 72
     2
 73
     0
 90
        0
 40
-0.6
 41
-30.0
 62
     5
 63
     7
421
 16777215
 74
     2
 91
        2
 64
     7
 65
   257
 75
     1
175
     1
 42
40.0
 92
        8
 66
     7
 43
1.0
 76
     1
 77
     6
 78
     2
 67
     7
 79
     3
170
     0
171
     0
290
     0
174
     0
 93
        1
 44
0.0
173
     0
291
     0
 45
0.0
1001
ACAD
1000
AcDbSavedByObjectVersion
1070
     0
  0
VISUALSTYLE
  5
35
102
{ACAD_REACTORS
330
2A
102
}
330
2A
100
AcDbVisualStyle
  2
Dim
 70
    11
 71
     2
 72
     2
 73
     0
 90
        0
 40
-0.6
 41
-30.0
 62
     5
 63
     7
421
 16777215
 74
     1
 91
        4
 64
     7
 65
   257
 75
     1
175
     1
 42
1.0
 92
        8
 66
     7
 43
1.0
 76
     1
 77
     6
 78
     2
 67
     7
 79
     5
170
     0
171
     0
290
     0
174
     0
 93
        1
 44
-50.0
173
     0
291
     1
 45
0.0
1001
ACAD
1000
AcDbSavedByObjectVersion
1070
     0
  0
VISUALSTYLE
  5
39
102
{ACAD_REACTORS
330
2A
102
}
330
2A
100
AcDbVisualStyle
  2
Facepattern
 70
    15
 71
     2
 72
     2
 73
     0
 90
        0
 40
-0.6
 41
-30.0
 62
     5
 63
     7
421
 16777215
 74
     1
 91
        4
 64
     7
 65
   257
 75
     1
175
     1
 42
1.0
 92
        8
 66
     7
 43
1.0
 76
     1
 77
     6
 78
     2
 67
     7
 79
     5
170
     0
171
     0
290
     0
174
     0
 93
        1
 44
0.0
173
     0
291
     1
 45
0.0
1001
ACAD
1000
AcDbSavedByObjectVersion
1070
     0
  0
VISUALSTYLE
  5
2B
102
{ACAD_REACTORS
330
2A
102
}
330
2A
100
AcDbVisualStyle
  2
Flat
 70
     0
 71
     2
 72
     1
 73
     1
 90
        2
 40
-0.6
 41
30.0
 62
     5
 63
     7
421
 16777215
 74
     0
 91
        4
 64
     7
 65
   257
 75
     1
175
     1
 42
1.0
 92
        8
 66
     7
 43
1.0
 76
     1
 77
     6
 78
     2
 67
     7
 79
     5
170
     0
171
     0
290
     0
174
     0
 93
       13
 44
0.0
173
     0
291
     1
 45
0.0
1001
ACAD
1000
AcDbSavedByObjectVersion
1070
     0
  0
VISUALSTYLE
  5
2C
102
{ACAD_REACTORS
330
2A
102
}
330
2A
100
AcDbVisualStyle
  2
FlatWithEdges
 70
     1
 71
     2
 72
     1
 73
     1
 90
        2
 40
-0.6
 41
30.0
 62
     5
 63
     7
421
 16777215
 74
     1
 91
        4
 64
     7
 65
   257
 75
     1
175
     1
 42
1.0
 92
        0
 66
   257
 43
1.0
 76
     1
 77
     6
 78
     2
 67
     7
 79
     5
170
     0
171
     0
290
     0
174
     0
 93
       13
 44
0.0
173
     0
291
     1
 45
0.0
1001
ACAD
1000
AcDbSavedByObjectVersion
1070
     0
  0
VISUALSTYLE
  5
2D
102
{ACAD_REACTORS
330
2A
102
}
330
2A
100
AcDbVisualStyle
  2
Gouraud
 70
     2
 71
     2
 72
     2
 73
     1
 90
        2
 40
-0.6
 41
30.0
 62
     5
 63
     7
421
 16777215
 74
     0
 91
        4
 64
     7
 65
   257
 75
     1
175
     1
 42
1.0
 92
        0
 66
     7
 43
1.0
 76
     1
 77
     6
 78
     2
 67
     7
 79
     5
170
     0
171
     0
290
     0
174
     0
 93
       13
 44
0.0
173
     0
291
     1
 45
0.0
1001
ACAD
1000
AcDbSavedByObjectVersion
1070
     0
  0
VISUALSTYLE
  5
2E
102
{ACAD_REACTORS
330
2A
102
}
330
2A
100
AcDbVisualStyle
  2
GouraudWithEdges
 70
     3
 71
     2
 72
     2
 73
     1
 90
        2
 40
-0.6
 41
30.0
 62
     5
 63
     7
421
 16777215
 74
     1
 91
        4
 64
     7
 65
   257
 75
     1
175
     1
 42
1.0
 92
        0
 66
   257
 43
1.0
 76
     1
 77
     6
 78
     2
 67
     7
 79
     5
170
     0
171
     0
290
     0
174
     0
 93
       13
 44
0.0
173
     0
291
     1
 45
0.0
1001
ACAD
1000
AcDbSavedByObjectVersion
1070
     0
  0
VISUALSTYLE
  5
38
102
{ACAD_REACTORS
330
2A
102
}
330
2A
100
AcDbVisualStyle
  2
Linepattern
 70
    14
 71
     2
 72
     2
 73
     0
 90
        0
 40
-0.6
 41
-30.0
 62
     5
 63
     7
421
 16777215
 74
     1
 91
        4
 64
     7
 65
   257
 75
     7
175
     7
 42
1.0
 92
        8
 66
     7
 43
1.0
 76
     1
 77
     6
 78
     2
 67
     7
 79
     5
170
     0
171
     0
290
     0
174
     0
 93
        1
 44
0.0
173
     0
291
     1
 45
0.0
1001
ACAD
1000
AcDbSavedByObjectVersion
1070
     0
  0
VISUALSTYLE
  5
33
102
{ACAD_REACTORS
330
2A
102
}
330
2A
100
AcDbVisualStyle
  2
Realistic
 70
     8
 71
     2
 72
     2
 73
     0
 90
        0
 40
-0.6
 41
-30.0
 62
     5
 63
     7
421
 16777215
 74
     1
 91
        0
 64
     7
 65
   257
 75
     1
175
     1
 42
1.0
 92
        8
 66
     8
424
  7895160
 43
1.0
 76
     1
 77
     6
 78
     2
 67
     7
 79
     5
170
     0
171
     0
290
     0
174
     0
 93
       13
 44
0.0
173
     0
291
     0
 45
0.0
1001
ACAD
1000
AcDbSavedByObjectVersion
1070
     0
  0
VISUALSTYLE
  5
37
102
{ACAD_REACTORS
330
2A
102
}
330
2A
100
AcDbVisualStyle
  2
Thicken
 70
    13
 71
     2
 72
     2
 73
     0
 90
        0
 40
-0.6
 41
-30.0
 62
     5
 63
     7
421
 16777215
 74
     1
 91
        4
 64
     7
 65
   257
 75
     1
175
     1
 42
1.0
 92
       12
 66
     7
 43
1.0
 76
     1
 77
     6
 78
     2
 67
     7
 79
     5
170
     0
171
     0
290
     0
174
     0
 93
        1
 44
0.0
173
     0
291
     1
 45
0.0
1001
ACAD
1000
AcDbSavedByObjectVersion
1070
     0
  0
ENDSEC
  0
EOF
