  0
SECTION
  2
HEADER
  9
$ACADVER
  1
AC1018
  9
$ACADMAINTVER
 70
     0
  9
$DWGCODEPAGE
  3
ANSI_1252
  9
$INSBASE
 10
0.0
 20
0.0
 30
0.0
  9
$EXTMIN
 10
1.000000000000000E+20
 20
1.000000000000000E+20
 30
1.000000000000000E+20
  9
$EXTMAX
 10
-1.000000000000000E+20
 20
-1.000000000000000E+20
 30
-1.000000000000000E+20
  9
$LIMMIN
 10
0.0
 20
0.0
  9
$LIMMAX
 10
12.0
 20
9.0
  9
$ORTHOMODE
 70
     0
  9
$REGENMODE
 70
     1
  9
$FILLMODE
 70
     1
  9
$QTEXTMODE
 70
     0
  9
$MIRRTEXT
 70
     1
  9
$LTSCALE
 40
1.0
  9
$ATTMODE
 70
     1
  9
$TEXTSIZE
 40
0.2
  9
$TRACEWID
 40
0.05
  9
$TEXTSTYLE
  7
Standard
  9
$CLAYER
  8
0
  9
$CELTYPE
  6
ByLayer
  9
$CECOLOR
 62
   256
  9
$CELTSCALE
 40
1.0
  9
$DISPSILH
 70
     0
  9
$DIMSCALE
 40
1.0
  9
$DIMASZ
 40
0.18
  9
$DIMEXO
 40
0.0625
  9
$DIMDLI
 40
0.38
  9
$DIMRND
 40
0.0
  9
$DIMDLE
 40
0.0
  9
$DIMEXE
 40
0.18
  9
$DIMTP
 40
0.0
  9
$DIMTM
 40
0.0
  9
$DIMTXT
 40
0.18
  9
$DIMCEN
 40
0.09
  9
$DIMTSZ
 40
0.0
  9
$DIMTOL
 70
     0
  9
$DIMLIM
 70
     0
  9
$DIMTIH
 70
     1
  9
$DIMTOH
 70
     1
  9
$DIMSE1
 70
     0
  9
$DIMSE2
 70
     0
  9
$DIMTAD
 70
     0
  9
$DIMZIN
 70
     0
  9
$DIMBLK
  1

  9
$DIMASO
 70
     1
  9
$DIMSHO
 70
     1
  9
$DIMPOST
  1

  9
$DIMAPOST
  1

  9
$DIMALT
 70
     0
  9
$DIMALTD
 70
     2
  9
$DIMALTF
 40
25.4
  9
$DIMLFAC
 40
1.0
  9
$DIMTOFL
 70
     0
  9
$DIMTVP
 40
0.0
  9
$DIMTIX
 70
     0
  9
$DIMSOXD
 70
     0
  9
$DIMSAH
 70
     0
  9
$DIMBLK1
  1

  9
$DIMBLK2
  1

  9
$DIMSTYLE
  2
Standard
  9
$DIMCLRD
 70
     0
  9
$DIMCLRE
 70
     0
  9
$DIMCLRT
 70
     0
  9
$DIMTFAC
 40
1.0
  9
$DIMGAP
 40
0.09
  9
$DIMJUST
 70
     0
  9
$DIMSD1
 70
     0
  9
$DIMSD2
 70
     0
  9
$DIMTOLJ
 70
     1
  9
$DIMTZIN
 70
     0
  9
$DIMALTZ
 70
     0
  9
$DIMALTTZ
 70
     0
  9
$DIMUPT
 70
     0
  9
$DIMDEC
 70
     4
  9
$DIMTDEC
 70
     4
  9
$DIMALTU
 70
     2
  9
$DIMALTTD
 70
     2
  9
$DIMTXSTY
  7
Standard
  9
$DIMAUNIT
 70
     0
  9
$DIMADEC
 70
     0
  9
$DIMALTRND
 40
0.0
  9
$DIMAZIN
 70
     0
  9
$DIMDSEP
 70
    46
  9
$DIMATFIT
 70
     3
  9
$DIMFRAC
 70
     0
  9
$DIMLDRBLK
  1

  9
$DIMLUNIT
 70
     2
  9
$DIMLWD
 70
    -2
  9
$DIMLWE
 70
    -2
  9
$DIMTMOVE
 70
     0
  9
$LUNITS
 70
     2
  9
$LUPREC
 70
     4
  9
$SKETCHINC
 40
0.1
  9
$FILLETRAD
 40
0.5
  9
$AUNITS
 70
     0
  9
$AUPREC
 70
     0
  9
$MENU
  1
.
  9
$ELEVATION
 40
0.0
  9
$PELEVATION
 40
0.0
  9
$THICKNESS
 40
0.0
  9
$LIMCHECK
 70
     0
  9
$CHAMFERA
 40
0.5
  9
$CHAMFERB
 40
0.5
  9
$CHAMFERC
 40
1.0
  9
$CHAMFERD
 40
0.0
  9
$SKPOLY
 70
     0
  9
$TDCREATE
 40
2456750.81837125
  9
$TDUCREATE
 40
2456750.735037917
  9
$TDUPDATE
 40
2456750.818371261
  9
$TDUUPDATE
 40
2456750.735037928
  9
$TDINDWG
 40
0.0000000116
  9
$TDUSRTIMER
 40
0.0000000116
  9
$USRTIMER
 70
     1
  9
$ANGBASE
 50
0.0
  9
$ANGDIR
 70
     0
  9
$PDMODE
 70
     0
  9
$PDSIZE
 40
0.0
  9
$PLINEWID
 40
0.0
  9
$SPLFRAME
 70
     0
  9
$SPLINETYPE
 70
     6
  9
$SPLINESEGS
 70
     8
  9
$HANDSEED
  5
BA
  9
$SURFTAB1
 70
     6
  9
$SURFTAB2
 70
     6
  9
$SURFTYPE
 70
     6
  9
$SURFU
 70
     6
  9
$SURFV
 70
     6
  9
$UCSBASE
  2

  9
$UCSNAME
  2

  9
$UCSORG
 10
0.0
 20
0.0
 30
0.0
  9
$UCSXDIR
 10
1.0
 20
0.0
 30
0.0
  9
$UCSYDIR
 10
0.0
 20
1.0
 30
0.0
  9
$UCSORTHOREF
  2

  9
$UCSORTHOVIEW
 70
     0
  9
$UCSORGTOP
 10
0.0
 20
0.0
 30
0.0
  9
$UCSORGBOTTOM
 10
0.0
 20
0.0
 30
0.0
  9
$UCSORGLEFT
 10
0.0
 20
0.0
 30
0.0
  9
$UCSORGRIGHT
 10
0.0
 20
0.0
 30
0.0
  9
$UCSORGFRONT
 10
0.0
 20
0.0
 30
0.0
  9
$UCSORGBACK
 10
0.0
 20
0.0
 30
0.0
  9
$PUCSBASE
  2

  9
$PUCSNAME
  2

  9
$PUCSORG
 10
0.0
 20
0.0
 30
0.0
  9
$PUCSXDIR
 10
1.0
 20
0.0
 30
0.0
  9
$PUCSYDIR
 10
0.0
 20
1.0
 30
0.0
  9
$PUCSORTHOREF
  2

  9
$PUCSORTHOVIEW
 70
     0
  9
$PUCSORGTOP
 10
0.0
 20
0.0
 30
0.0
  9
$PUCSORGBOTTOM
 10
0.0
 20
0.0
 30
0.0
  9
$PUCSORGLEFT
 10
0.0
 20
0.0
 30
0.0
  9
$PUCSORGRIGHT
 10
0.0
 20
0.0
 30
0.0
  9
$PUCSORGFRONT
 10
0.0
 20
0.0
 30
0.0
  9
$PUCSORGBACK
 10
0.0
 20
0.0
 30
0.0
  9
$USERI1
 70
     0
  9
$USERI2
 70
     0
  9
$USERI3
 70
     0
  9
$USERI4
 70
     0
  9
$USERI5
 70
     0
  9
$USERR1
 40
0.0
  9
$USERR2
 40
0.0
  9
$USERR3
 40
0.0
  9
$USERR4
 40
0.0
  9
$USERR5
 40
0.0
  9
$WORLDVIEW
 70
     1
  9
$SHADEDGE
 70
     3
  9
$SHADEDIF
 70
    70
  9
$TILEMODE
 70
     1
  9
$MAXACTVP
 70
    64
  9
$PINSBASE
 10
0.0
 20
0.0
 30
0.0
  9
$PLIMCHECK
 70
     0
  9
$PEXTMIN
 10
1.000000000000000E+20
 20
1.000000000000000E+20
 30
1.000000000000000E+20
  9
$PEXTMAX
 10
-1.000000000000000E+20
 20
-1.000000000000000E+20
 30
-1.000000000000000E+20
  9
$PLIMMIN
 10
0.0
 20
0.0
  9
$PLIMMAX
 10
12.0
 20
9.0
  9
$UNITMODE
 70
     0
  9
$VISRETAIN
 70
     1
  9
$PLINEGEN
 70
     0
  9
$PSLTSCALE
 70
     1
  9
$TREEDEPTH
 70
  3020
  9
$CMLSTYLE
  2
Standard
  9
$CMLJUST
 70
     0
  9
$CMLSCALE
 40
1.0
  9
$PROXYGRAPHICS
 70
     1
  9
$MEASUREMENT
 70
     0
  9
$CELWEIGHT
370
    -1
  9
$ENDCAPS
280
     0
  9
$JOINSTYLE
280
     0
  9
$LWDISPLAY
290
     0
  9
$INSUNITS
 70
    13
  9
$HYPERLINKBASE
  1

  9
$STYLESHEET
  1

  9
$XEDIT
290
     1
  9
$CEPSNTYPE
380
     0
  9
$PSTYLEMODE
290
     1
  9
$FINGERPRINTGUID
  2
{065BBE87-9753-4AE5-A63F-689163B5C441}
  9
$VERSIONGUID
  2
{FAEB1C32-E019-11D5-929B-00C0DF256EC4}
  9
$EXTNAMES
290
     1
  9
$PSVPSCALE
 40
0.0
  9
$OLESTARTUP
290
     0
  9
$SORTENTS
280
   127
  9
$INDEXCTL
280
     0
  9
$HIDETEXT
280
     1
  9
$XCLIPFRAME
290
     0
  9
$HALOGAP
280
     0
  9
$OBSCOLOR
 70
   257
  9
$OBSLTYPE
280
     0
  9
$INTERSECTIONDISPLAY
280
     0
  9
$INTERSECTIONCOLOR
 70
   257
  9
$DIMASSOC
280
     2
  9
$PROJECTNAME
  1

  0
ENDSEC
  0
SECTION
  2
CLASSES
  0
CLASS
  1
ACDBDICTIONARYWDFLT
  2
AcDbDictionaryWithDefault
  3
ObjectDBX Classes
 90
        0
 91
        4
280
     0
281
     0
  0
CLASS
  1
VISUALSTYLE
  2
AcDbVisualStyle
  3
ObjectDBX Classes
 90
     4095
 91
        4
280
     0
281
     0
  0
CLASS
  1
SCALE
  2
AcDbScale
  3
ObjectDBX Classes
 90
     1153
 91
        4
280
     0
281
     0
  0
ENDSEC
  0
SECTION
  2
TABLES
  0
TABLE
  2
VPORT
  5
8
330
0
100
AcDbSymbolTable
 70
     1
  0
VPORT
  5
29
330
8
100
AcDbSymbolTableRecord
100
AcDbViewportTableRecord
  2
*Active
 70
     0
 10
0.0
 20
0.0
 11
1.0
 21
1.0
 12
10.42990654205607
 22
4.5
 13
0.0
 23
0.0
 14
0.5
 24
0.5
 15
0.5
 25
0.5
 16
0.0
 26
0.0
 36
1.0
 17
0.0
 27
0.0
 37
0.0
 40
9.0
 41
1.972972972850329
 42
50.0
 43
0.0
 44
0.0
 50
0.0
 51
0.0
 71
     0
 72
   100
 73
     1
 74
     3
 75
     0
 76
     0
 77
     0
 78
     0
281
     0
 65
     1
110
0.0
120
0.0
130
0.0
111
1.0
121
0.0
131
0.0
112
0.0
122
1.0
132
0.0
 79
     0
146
0.0
  0
ENDTAB
  0
TABLE
  2
LTYPE
  5
5
330
0
100
AcDbSymbolTable
 70
     1
  0
LTYPE
  5
14
330
5
100
AcDbSymbolTableRecord
100
AcDbLinetypeTableRecord
  2
ByBlock
 70
     0
  3

 72
    65
 73
     0
 40
0.0
  0
LTYPE
  5
15
330
5
100
AcDbSymbolTableRecord
100
AcDbLinetypeTableRecord
  2
ByLayer
 70
     0
  3

 72
    65
 73
     0
 40
0.0
  0
LTYPE
  5
16
330
5
100
AcDbSymbolTableRecord
100
AcDbLinetypeTableRecord
  2
Continuous
 70
     0
  3
Solid line
 72
    65
 73
     0
 40
0.0
  0
ENDTAB
  0
TABLE
  2
LAYER
  5
2
330
0
100
AcDbSymbolTable
 70
     2
  0
LAYER
  5
10
330
2
100
AcDbSymbolTableRecord
100
AcDbLayerTableRecord
  2
0
 70
     0
 62
     7
  6
Continuous
370
    -3
390
F
  0
LAYER
  5
5E
330
2
100
AcDbSymbolTableRecord
100
AcDbLayerTableRecord
  2
text2
 70
     0
 62
    16
420
  8388608
  6
Continuous
370
    -3
390
F
  0
ENDTAB
  0
TABLE
  2
STYLE
  5
3
330
0
100
AcDbSymbolTable
 70
     1
  0
STYLE
  5
11
330
3
100
AcDbSymbolTableRecord
100
AcDbTextStyleTableRecord
  2
Standard
 70
     0
 40
0.0
 41
1.0
 50
0.0
 71
     0
 42
0.2
  3
txt
  4

  0
ENDTAB
  0
TABLE
  2
VIEW
  5
6
330
0
100
AcDbSymbolTable
 70
     0
  0
ENDTAB
  0
TABLE
  2
UCS
  5
7
330
0
100
AcDbSymbolTable
 70
     0
  0
ENDTAB
  0
TABLE
  2
APPID
  5
9
330
0
100
AcDbSymbolTable
 70
     1
  0
APPID
  5
12
330
9
100
AcDbSymbolTableRecord
100
AcDbRegAppTableRecord
  2
ACAD
 70
     0
  0
ENDTAB
  0
TABLE
  2
DIMSTYLE
  5
A
330
0
100
AcDbSymbolTable
 70
     1
100
AcDbDimStyleTable
  0
DIMSTYLE
105
27
330
A
100
AcDbSymbolTableRecord
100
AcDbDimStyleTableRecord
  2
Standard
 70
     0
340
11
  0
ENDTAB
  0
TABLE
  2
BLOCK_RECORD
  5
1
330
0
100
AcDbSymbolTable
 70
     1
  0
BLOCK_RECORD
  5
1F
330
1
100
AcDbSymbolTableRecord
100
AcDbBlockTableRecord
  2
*Model_Space
340
22
  0
BLOCK_RECORD
  5
1B
330
1
100
AcDbSymbolTableRecord
100
AcDbBlockTableRecord
  2
*Paper_Space
340
1E
  0
BLOCK_RECORD
  5
23
330
1
100
AcDbSymbolTableRecord
100
AcDbBlockTableRecord
  2
*Paper_Space0
340
26
  0
ENDTAB
  0
ENDSEC
  0
SECTION
  2
BLOCKS
  0
BLOCK
  5
20
330
1F
100
AcDbEntity
  8
0
100
AcDbBlockBegin
  2
*Model_Space
 70
     0
 10
0.0
 20
0.0
 30
0.0
  3
*Model_Space
  1

  0
ENDBLK
  5
21
330
1F
100
AcDbEntity
  8
0
100
AcDbBlockEnd
  0
BLOCK
  5
1C
330
1B
100
AcDbEntity
 67
     1
  8
0
100
AcDbBlockBegin
  2
*Paper_Space
 70
     0
 10
0.0
 20
0.0
 30
0.0
  3
*Paper_Space
  1

  0
ENDBLK
  5
1D
330
1B
100
AcDbEntity
 67
     1
  8
0
100
AcDbBlockEnd
  0
BLOCK
  5
24
330
23
100
AcDbEntity
  8
0
100
AcDbBlockBegin
  2
*Paper_Space0
 70
     0
 10
0.0
 20
0.0
 30
0.0
  3
*Paper_Space0
  1

  0
ENDBLK
  5
25
330
23
100
AcDbEntity
  8
0
100
AcDbBlockEnd
  0
ENDSEC
  0
SECTION
  2
ENTITIES
  0
LWPOLYLINE
  5
5D
330
1F
100
AcDbEntity
  8
text2
100
AcDbPolyline
 90
        4
 70
     1
 43
0.0
 10
0.0
 20
0.0
 10
3000.0
 20
0.0
 10
3000.0
 20
2500.0
 10
0.0
 20
2500.0
  0
LWPOLYLINE
  5
5F
330
1F
100
AcDbEntity
  8
text2
100
AcDbPolyline
 90
        4
 70
     1
 43
0.0
 10
2847.5
 20
2339.0
 10
2847.5
 20
2434.0
 10
2752.5
 20
2434.0
 10
2752.5
 20
2339.0
  0
LWPOLYLINE
  5
60
330
1F
100
AcDbEntity
  8
text2
100
AcDbPolyline
 90
        4
 70
     1
 43
0.0
 10
2697.5
 20
2339.0
 10
2697.5
 20
2434.0
 10
2602.5
 20
2434.0
 10
2602.5
 20
2339.0
  0
LWPOLYLINE
  5
61
330
1F
100
AcDbEntity
  8
text2
100
AcDbPolyline
 90
        4
 70
     1
 43
0.0
 10
2547.5
 20
2339.0
 10
2547.5
 20
2434.0
 10
2452.5
 20
2434.0
 10
2452.5
 20
2339.0
  0
LWPOLYLINE
  5
62
330
1F
100
AcDbEntity
  8
text2
100
AcDbPolyline
 90
        4
 70
     1
 43
0.0
 10
2397.5
 20
2339.0
 10
2397.5
 20
2434.0
 10
2302.5
 20
2434.0
 10
2302.5
 20
2339.0
  0
LWPOLYLINE
  5
63
330
1F
100
AcDbEntity
  8
text2
100
AcDbPolyline
 90
        4
 70
     1
 43
0.0
 10
2247.5
 20
2339.0
 10
2247.5
 20
2434.0
 10
2152.5
 20
2434.0
 10
2152.5
 20
2339.0
  0
LWPOLYLINE
  5
64
330
1F
100
AcDbEntity
  8
text2
100
AcDbPolyline
 90
        4
 70
     1
 43
0.0
 10
2097.5
 20
2339.0
 10
2097.5
 20
2434.0
 10
2002.5
 20
2434.0
 10
2002.5
 20
2339.0
  0
LWPOLYLINE
  5
65
330
1F
100
AcDbEntity
  8
text2
100
AcDbPolyline
 90
        4
 70
     1
 43
0.0
 10
1947.5
 20
2339.0
 10
1947.5
 20
2434.0
 10
1852.5
 20
2434.0
 10
1852.5
 20
2339.0
  0
LWPOLYLINE
  5
66
330
1F
100
AcDbEntity
  8
text2
100
AcDbPolyline
 90
        4
 70
     1
 43
0.0
 10
1797.5
 20
2339.0
 10
1797.5
 20
2434.0
 10
1702.5
 20
2434.0
 10
1702.5
 20
2339.0
  0
LWPOLYLINE
  5
67
330
1F
100
AcDbEntity
  8
text2
100
AcDbPolyline
 90
        4
 70
     1
 43
0.0
 10
1647.5
 20
2339.0
 10
1647.5
 20
2434.0
 10
1552.5
 20
2434.0
 10
1552.5
 20
2339.0
  0
LWPOLYLINE
  5
68
330
1F
100
AcDbEntity
  8
text2
100
AcDbPolyline
 90
        4
 70
     1
 43
0.0
 10
1497.5
 20
2339.0
 10
1497.5
 20
2434.0
 10
1402.5
 20
2434.0
 10
1402.5
 20
2339.0
  0
LWPOLYLINE
  5
69
330
1F
100
AcDbEntity
  8
text2
100
AcDbPolyline
 90
       26
 70
     1
 43
0.0
 10
66.0
 20
970.0
 10
66.0
 20
1047.4
 10
66.7
 20
1051.8
 10
69.10000000000001
 20
1056.5
 10
72.7
 20
1060.1
 10
77.4
 20
1062.5
 10
82.5
 20
1063.3
 10
87.60000000000001
 20
1062.5
 10
92.3
 20
1060.1
 10
95.9
 20
1056.5
 10
98.3
 20
1051.8
 10
99.0
 20
1047.4
 10
99.0
 20
1038.2
 10
121.5
 20
1003.0
 10
130.8
 20
1003.0
 10
135.2
 20
1002.3
 10
139.9
 20
999.9
 10
143.5
 20
996.3000000000001
 10
145.9
 20
991.6
 10
146.7
 20
986.5
 10
145.9
 20
981.4
 10
143.5
 20
976.7
 10
139.9
 20
973.1
 10
135.2
 20
970.7
 10
130.8
 20
970.0
 10
114.4
 20
970.0
  0
LWPOLYLINE
  5
6A
330
1F
100
AcDbEntity
  8
text2
100
AcDbPolyline
 90
       26
 70
     1
 43
0.0
 10
114.4
 20
830.0
 10
130.8
 20
830.0
 10
135.2
 20
829.3000000000001
 10
139.9
 20
826.9
 10
143.5
 20
823.3000000000001
 10
145.9
 20
818.6
 10
146.7
 20
813.5
 10
145.9
 20
808.4
 10
143.5
 20
803.7
 10
139.9
 20
800.1
 10
135.2
 20
797.7
 10
130.8
 20
797.0
 10
121.5
 20
797.0
 10
99.0
 20
761.8000000000001
 10
99.0
 20
752.6
 10
98.3
 20
748.2
 10
95.9
 20
743.5
 10
92.3
 20
739.9
 10
87.60000000000001
 20
737.5
 10
82.5
 20
736.7
 10
77.4
 20
737.5
 10
72.7
 20
739.9
 10
69.10000000000001
 20
743.5
 10
66.7
 20
748.2
 10
66.0
 20
752.6
 10
66.0
 20
830.0
  0
LWPOLYLINE
  5
6B
330
1F
100
AcDbEntity
  8
text2
100
AcDbPolyline
 90
        8
 70
     1
 43
0.0
 10
66.0
 20
871.0
 10
66.0
 20
929.0
 10
134.8
 20
929.0
 10
164.8
 20
916.5
 10
174.0
 20
916.5
 10
174.0
 20
883.5
 10
164.8
 20
883.5
 10
134.8
 20
871.0
  0
LWPOLYLINE
  5
6C
330
1F
100
AcDbEntity
  8
text2
100
AcDbPolyline
 90
        4
 70
     1
 43
0.0
 10
1597.5
 20
66.0
 10
1597.5
 20
161.0
 10
1502.5
 20
161.0
 10
1502.5
 20
66.0
  0
LWPOLYLINE
  5
6D
330
1F
100
AcDbEntity
  8
text2
100
AcDbPolyline
 90
        4
 70
     1
 43
0.0
 10
1447.5
 20
66.0
 10
1447.5
 20
161.0
 10
1352.5
 20
161.0
 10
1352.5
 20
66.0
  0
LWPOLYLINE
  5
6E
330
1F
100
AcDbEntity
  8
text2
100
AcDbPolyline
 90
        4
 70
     1
 43
0.0
 10
1297.5
 20
66.0
 10
1297.5
 20
161.0
 10
1202.5
 20
161.0
 10
1202.5
 20
66.0
  0
LWPOLYLINE
  5
6F
330
1F
100
AcDbEntity
  8
text2
100
AcDbPolyline
 90
        4
 70
     1
 43
0.0
 10
1147.5
 20
66.0
 10
1147.5
 20
161.0
 10
1052.5
 20
161.0
 10
1052.5
 20
66.0
  0
LWPOLYLINE
  5
70
330
1F
100
AcDbEntity
  8
text2
100
AcDbPolyline
 90
        4
 70
     1
 43
0.0
 10
997.5
 20
66.0
 10
997.5
 20
161.0
 10
902.5
 20
161.0
 10
902.5
 20
66.0
  0
LWPOLYLINE
  5
71
330
1F
100
AcDbEntity
  8
text2
100
AcDbPolyline
 90
        4
 70
     1
 43
0.0
 10
847.5
 20
66.0
 10
847.5
 20
161.0
 10
752.5
 20
161.0
 10
752.5
 20
66.0
  0
LWPOLYLINE
  5
72
330
1F
100
AcDbEntity
  8
text2
100
AcDbPolyline
 90
        4
 70
     1
 43
0.0
 10
697.5
 20
66.0
 10
697.5
 20
161.0
 10
602.5
 20
161.0
 10
602.5
 20
66.0
  0
LWPOLYLINE
  5
73
330
1F
100
AcDbEntity
  8
text2
100
AcDbPolyline
 90
        4
 70
     1
 43
0.0
 10
547.5
 20
66.0
 10
547.5
 20
161.0
 10
452.5
 20
161.0
 10
452.5
 20
66.0
  0
LWPOLYLINE
  5
74
330
1F
100
AcDbEntity
  8
text2
100
AcDbPolyline
 90
        4
 70
     1
 43
0.0
 10
397.5
 20
66.0
 10
397.5
 20
161.0
 10
302.5
 20
161.0
 10
302.5
 20
66.0
  0
LWPOLYLINE
  5
75
330
1F
100
AcDbEntity
  8
text2
100
AcDbPolyline
 90
        9
 70
     1
 43
0.0
 10
2879.29
 20
85.0
 10
2879.29
 20
135.0
 10
2907.86
 20
135.0
 10
2915.0
 20
127.855
 10
2915.0
 20
117.145
 10
2907.86
 20
110.0
 10
2915.0
 20
102.855
 10
2915.0
 20
92.145
 10
2907.86
 20
85.0
  0
LWPOLYLINE
  5
76
330
1F
100
AcDbEntity
  8
text2
100
AcDbPolyline
 90
        6
 70
     1
 43
0.0
 10
2886.43
 20
92.145
 10
2904.29
 20
92.145
 10
2907.86
 20
95.715
 10
2907.86
 20
99.285
 10
2900.715
 20
106.43
 10
2886.43
 20
106.43
  0
LWPOLYLINE
  5
77
330
1F
100
AcDbEntity
  8
text2
100
AcDbPolyline
 90
        6
 70
     1
 43
0.0
 10
2886.43
 20
113.57
 10
2900.715
 20
113.57
 10
2907.86
 20
120.715
 10
2907.86
 20
124.285
 10
2904.29
 20
127.855
 10
2886.43
 20
127.855
  0
LWPOLYLINE
  5
78
330
1F
100
AcDbEntity
  8
text2
100
AcDbPolyline
 90
       12
 70
     1
 43
0.0
 10
2767.858
 20
266.5
 10
2767.858
 20
270.787
 10
2772.145
 20
270.787
 10
2772.145
 20
292.213
 10
2767.858
 20
292.213
 10
2767.858
 20
296.5
 10
2780.716
 20
296.5
 10
2780.716
 20
292.213
 10
2776.429
 20
292.213
 10
2776.429
 20
270.787
 10
2780.716
 20
270.787
 10
2780.716
 20
266.5
  0
LWPOLYLINE
  5
79
330
1F
100
AcDbEntity
  8
text2
100
AcDbPolyline
 90
       10
 70
     1
 43
0.0
 10
2793.574
 20
266.5
 10
2793.574
 20
296.5
 10
2812.858
 20
296.5
 10
2812.858
 20
292.213
 10
2797.858
 20
292.213
 10
2797.858
 20
283.642
 10
2806.429
 20
283.642
 10
2806.429
 20
279.358
 10
2797.858
 20
279.358
 10
2797.858
 20
266.5
  0
LWPOLYLINE
  5
7A
330
1F
100
AcDbEntity
  8
text2
100
AcDbPolyline
 90
        8
 70
     1
 43
0.0
 10
2853.574
 20
270.787
 10
2853.574
 20
292.213
 10
2857.858
 20
296.5
 10
2870.716
 20
296.5
 10
2875.0
 20
292.213
 10
2875.0
 20
270.787
 10
2870.716
 20
266.5
 10
2857.858
 20
266.5
  0
LWPOLYLINE
  5
7B
330
1F
100
AcDbEntity
  8
text2
100
AcDbPolyline
 90
        8
 70
     1
 43
0.0
 10
2860.0
 20
270.787
 10
2868.574
 20
270.787
 10
2870.716
 20
272.929
 10
2870.716
 20
290.071
 10
2868.574
 20
292.213
 10
2860.0
 20
292.213
 10
2857.858
 20
290.071
 10
2857.858
 20
272.929
  0
LWPOLYLINE
  5
7C
330
1F
100
AcDbEntity
  8
text2
100
AcDbPolyline
 90
       12
 70
     1
 43
0.0
 10
2883.574
 20
270.787
 10
2883.574
 20
296.5
 10
2887.858
 20
296.5
 10
2887.858
 20
272.929
 10
2890.0
 20
270.787
 10
2898.574
 20
270.787
 10
2900.716
 20
272.929
 10
2900.716
 20
296.5
 10
2905.0
 20
296.5
 10
2905.0
 20
270.787
 10
2900.716
 20
266.5
 10
2887.858
 20
266.5
  0
LWPOLYLINE
  5
7D
330
1F
100
AcDbEntity
  8
text2
100
AcDbPolyline
 90
        8
 70
     1
 43
0.0
 10
2922.145
 20
266.5
 10
2922.145
 20
292.213
 10
2913.574
 20
292.213
 10
2913.574
 20
296.5
 10
2935.0
 20
296.5
 10
2935.0
 20
292.213
 10
2926.429
 20
292.213
 10
2926.429
 20
266.5
  0
LWPOLYLINE
  5
7E
330
1F
100
AcDbEntity
  8
text2
100
AcDbPolyline
 90
       10
 70
     1
 43
0.0
 10
2890.071
 20
435.0
 10
2890.071
 20
439.287
 10
2894.358
 20
439.287
 10
2894.358
 20
460.713
 10
2890.071
 20
460.713
 10
2894.358
 20
465.0
 10
2898.642
 20
465.0
 10
2898.642
 20
439.287
 10
2902.929
 20
439.287
 10
2902.929
 20
435.0
  0
LWPOLYLINE
  5
7F
330
1F
100
AcDbEntity
  8
text2
100
AcDbPolyline
 90
       10
 70
     1
 43
0.0
 10
251.429
 20
99.85600000000001
 10
251.429
 20
104.143
 10
255.716
 20
104.143
 10
255.716
 20
125.569
 10
251.429
 20
125.569
 10
255.716
 20
129.856
 10
260.0
 20
129.856
 10
260.0
 20
104.143
 10
264.287
 20
104.143
 10
264.287
 20
99.85600000000001
  0
LWPOLYLINE
  5
80
330
1F
100
AcDbEntity
  8
text2
100
AcDbPolyline
 90
       12
 70
     1
 43
0.0
 10
65.0
 20
1142.0
 10
65.0
 20
1172.0
 10
82.142
 20
1172.0
 10
86.426
 20
1167.713
 10
86.426
 20
1159.142
 10
82.142
 20
1154.858
 10
75.71300000000001
 20
1154.858
 10
86.426
 20
1144.143
 10
86.426
 20
1142.0
 10
82.142
 20
1142.0
 10
69.284
 20
1154.858
 10
69.284
 20
1142.0
  0
LWPOLYLINE
  5
81
330
1F
100
AcDbEntity
  8
text2
100
AcDbPolyline
 90
        6
 70
     1
 43
0.0
 10
69.284
 20
1159.142
 10
80.0
 20
1159.142
 10
82.142
 20
1161.287
 10
82.142
 20
1165.571
 10
80.0
 20
1167.713
 10
69.284
 20
1167.713
  0
LWPOLYLINE
  5
82
330
1F
100
AcDbEntity
  8
text2
100
AcDbPolyline
 90
       10
 70
     1
 43
0.0
 10
95.0
 20
1142.0
 10
95.0
 20
1172.0
 10
114.284
 20
1172.0
 10
114.284
 20
1167.713
 10
99.284
 20
1167.713
 10
99.284
 20
1159.142
 10
107.855
 20
1159.142
 10
107.855
 20
1154.858
 10
99.284
 20
1154.858
 10
99.284
 20
1142.0
  0
LWPOLYLINE
  5
83
330
1F
100
AcDbEntity
  8
text2
100
AcDbPolyline
 90
       12
 70
     1
 43
0.0
 10
159.284
 20
1142.0
 10
159.284
 20
1146.287
 10
163.571
 20
1146.287
 10
163.571
 20
1167.713
 10
159.284
 20
1167.713
 10
159.284
 20
1172.0
 10
172.142
 20
1172.0
 10
172.142
 20
1167.713
 10
167.855
 20
1167.713
 10
167.855
 20
1146.287
 10
172.142
 20
1146.287
 10
172.142
 20
1142.0
  0
LWPOLYLINE
  5
84
330
1F
100
AcDbEntity
  8
text2
100
AcDbPolyline
 90
       10
 70
     1
 43
0.0
 10
185.0
 20
1142.0
 10
185.0
 20
1172.0
 10
191.426
 20
1172.0
 10
202.142
 20
1148.429
 10
202.142
 20
1172.0
 10
206.426
 20
1172.0
 10
206.426
 20
1142.0
 10
200.0
 20
1142.0
 10
189.284
 20
1165.571
 10
189.284
 20
1142.0
  0
LWPOLYLINE
  5
85
330
1F
100
AcDbEntity
  8
text2
100
AcDbPolyline
 90
       10
 70
     1
 43
0.0
 10
132.75
 20
1043.1
 10
132.75
 20
1047.387
 10
137.037
 20
1047.387
 10
137.037
 20
1068.813
 10
132.75
 20
1068.813
 10
137.037
 20
1073.1
 10
141.321
 20
1073.1
 10
141.321
 20
1047.387
 10
145.608
 20
1047.387
 10
145.608
 20
1043.1
  0
LWPOLYLINE
  5
86
330
1F
100
AcDbEntity
  8
text2
100
AcDbPolyline
 90
       10
 70
     1
 43
0.0
 10
436.671
 20
2279.6
 10
436.671
 20
2283.887
 10
440.958
 20
2283.887
 10
440.958
 20
2305.313
 10
436.671
 20
2305.313
 10
440.958
 20
2309.6
 10
445.242
 20
2309.6
 10
445.242
 20
2283.887
 10
449.529
 20
2283.887
 10
449.529
 20
2279.6
  0
LWPOLYLINE
  5
87
330
1F
100
AcDbEntity
  8
text2
100
AcDbPolyline
 90
       10
 70
     1
 43
0.0
 10
2885.713
 20
2371.5
 10
2885.713
 20
2375.787
 10
2890.0
 20
2375.787
 10
2890.0
 20
2397.213
 10
2885.713
 20
2397.213
 10
2890.0
 20
2401.5
 10
2894.284
 20
2401.5
 10
2894.284
 20
2375.787
 10
2898.571
 20
2375.787
 10
2898.571
 20
2371.5
  0
LWPOLYLINE
  5
88
330
1F
100
AcDbEntity
  8
text2
100
AcDbPolyline
 90
        8
 70
     1
 43
0.0
 10
1274.29
 20
2361.5
 10
1274.29
 20
2411.5
 10
1302.86
 20
2411.5
 10
1310.0
 20
2404.355
 10
1310.0
 20
2390.07
 10
1302.86
 20
2382.93
 10
1281.43
 20
2382.93
 10
1281.43
 20
2361.5
  0
LWPOLYLINE
  5
89
330
1F
100
AcDbEntity
  8
text2
100
AcDbPolyline
 90
        6
 70
     1
 43
0.0
 10
1281.43
 20
2390.07
 10
1299.29
 20
2390.07
 10
1302.86
 20
2393.645
 10
1302.86
 20
2400.785
 10
1299.29
 20
2404.355
 10
1281.43
 20
2404.355
  0
LWPOLYLINE
  5
8A
330
1F
100
AcDbEntity
  8
text2
100
AcDbPolyline
 90
       15
 70
     1
 43
0.0
 10
1324.29
 20
2361.5
 10
1324.29
 20
2372.215
 10
1352.86
 20
2393.645
 10
1352.86
 20
2400.785
 10
1349.29
 20
2404.355
 10
1335.0
 20
2404.355
 10
1331.43
 20
2400.785
 10
1324.29
 20
2404.355
 10
1331.43
 20
2411.5
 10
1352.86
 20
2411.5
 10
1360.0
 20
2404.355
 10
1360.0
 20
2390.07
 10
1331.43
 20
2368.645
 10
1360.0
 20
2368.645
 10
1360.0
 20
2361.5
  0
LWPOLYLINE
  5
8B
330
1F
100
AcDbEntity
  8
text2
100
AcDbPolyline
 90
        6
 70
     1
 43
0.0
 10
547.0
 20
2335.0
 10
547.0
 20
2365.0
 10
551.284
 20
2365.0
 10
551.284
 20
2339.287
 10
568.426
 20
2339.287
 10
568.426
 20
2335.0
  0
LWPOLYLINE
  5
8C
330
1F
100
AcDbEntity
  8
text2
100
AcDbPolyline
 90
        8
 70
     1
 43
0.0
 10
577.0
 20
2339.287
 10
577.0
 20
2360.713
 10
581.284
 20
2365.0
 10
594.142
 20
2365.0
 10
598.426
 20
2360.713
 10
598.426
 20
2339.287
 10
594.142
 20
2335.0
 10
581.284
 20
2335.0
  0
LWPOLYLINE
  5
8D
330
1F
100
AcDbEntity
  8
text2
100
AcDbPolyline
 90
        8
 70
     1
 43
0.0
 10
583.426
 20
2339.287
 10
592.0
 20
2339.287
 10
594.142
 20
2341.429
 10
594.142
 20
2358.571
 10
592.0
 20
2360.713
 10
583.426
 20
2360.713
 10
581.284
 20
2358.571
 10
581.284
 20
2341.429
  0
LWPOLYLINE
  5
8E
330
1F
100
AcDbEntity
  8
text2
100
AcDbPolyline
 90
       12
 70
     1
 43
0.0
 10
641.284
 20
2335.0
 10
641.284
 20
2339.287
 10
645.571
 20
2339.287
 10
645.571
 20
2360.713
 10
641.284
 20
2360.713
 10
641.284
 20
2365.0
 10
654.142
 20
2365.0
 10
654.142
 20
2360.713
 10
649.855
 20
2360.713
 10
649.855
 20
2339.287
 10
654.142
 20
2339.287
 10
654.142
 20
2335.0
  0
LWPOLYLINE
  5
8F
330
1F
100
AcDbEntity
  8
text2
100
AcDbPolyline
 90
       10
 70
     1
 43
0.0
 10
667.0
 20
2335.0
 10
667.0
 20
2365.0
 10
673.426
 20
2365.0
 10
684.142
 20
2341.429
 10
684.142
 20
2365.0
 10
688.426
 20
2365.0
 10
688.426
 20
2335.0
 10
682.0
 20
2335.0
 10
671.284
 20
2358.571
 10
671.284
 20
2335.0
  0
LWPOLYLINE
  5
90
330
1F
100
AcDbEntity
  8
text2
100
AcDbPolyline
 90
        8
 70
     1
 43
0.0
 10
547.0
 20
2385.0
 10
547.0
 20
2435.0
 10
575.57
 20
2435.0
 10
582.71
 20
2427.855
 10
582.71
 20
2413.57
 10
575.57
 20
2406.43
 10
554.14
 20
2406.43
 10
554.14
 20
2385.0
  0
LWPOLYLINE
  5
91
330
1F
100
AcDbEntity
  8
text2
100
AcDbPolyline
 90
        6
 70
     1
 43
0.0
 10
554.14
 20
2413.57
 10
572.0
 20
2413.57
 10
575.57
 20
2417.145
 10
575.57
 20
2424.285
 10
572.0
 20
2427.855
 10
554.14
 20
2427.855
  0
LWPOLYLINE
  5
92
330
1F
100
AcDbEntity
  8
text2
100
AcDbPolyline
 90
       10
 70
     1
 43
0.0
 10
604.14
 20
2385.0
 10
604.14
 20
2392.145
 10
611.285
 20
2392.145
 10
611.285
 20
2427.855
 10
604.14
 20
2427.855
 10
611.285
 20
2435.0
 10
618.4250000000001
 20
2435.0
 10
618.4250000000001
 20
2392.145
 10
625.57
 20
2392.145
 10
625.57
 20
2385.0
  0
LWPOLYLINE
  5
93
330
1F
100
AcDbEntity
  8
text2
100
AcDbPolyline
 90
       17
 70
     1
 43
0.0
 10
2281.08
 20
85.0
 10
2281.08
 20
81.429
 10
2277.505
 20
77.855
 10
2259.65
 20
77.855
 10
2259.65
 20
70.715
 10
2281.08
 20
70.715
 10
2288.22
 20
77.855
 10
2288.22
 20
113.57
 10
2281.08
 20
113.57
 10
2281.08
 20
110.0
 10
2277.505
 20
113.57
 10
2266.79
 20
113.57
 10
2259.65
 20
106.43
 10
2259.65
 20
92.145
 10
2266.79
 20
85.0
 10
2277.505
 20
85.0
 10
2281.08
 20
88.571
  0
LWPOLYLINE
  5
94
330
1F
100
AcDbEntity
  8
text2
100
AcDbPolyline
 90
        8
 70
     1
 43
0.0
 10
2277.505
 20
95.715
 10
2277.505
 20
102.855
 10
2273.935
 20
106.43
 10
2270.365
 20
106.43
 10
2266.79
 20
102.855
 10
2266.79
 20
95.715
 10
2270.365
 20
92.145
 10
2273.935
 20
92.145
  0
LWPOLYLINE
  5
95
330
1F
100
AcDbEntity
  8
text2
100
AcDbPolyline
 90
       12
 70
     1
 43
0.0
 10
2306.08
 20
85.0
 10
2306.08
 20
135.0
 10
2334.65
 20
135.0
 10
2341.79
 20
127.855
 10
2341.79
 20
113.57
 10
2334.65
 20
106.43
 10
2323.935
 20
106.43
 10
2341.79
 20
88.571
 10
2341.79
 20
85.0
 10
2334.65
 20
85.0
 10
2313.22
 20
106.43
 10
2313.22
 20
85.0
  0
LWPOLYLINE
  5
96
330
1F
100
AcDbEntity
  8
text2
100
AcDbPolyline
 90
        6
 70
     1
 43
0.0
 10
2313.22
 20
113.57
 10
2331.08
 20
113.57
 10
2334.65
 20
117.145
 10
2334.65
 20
124.285
 10
2331.08
 20
127.855
 10
2313.22
 20
127.855
  0
LWPOLYLINE
  5
97
330
1F
100
AcDbEntity
  8
text2
100
AcDbPolyline
 90
       24
 70
     1
 43
0.0
 10
2356.08
 20
92.145
 10
2363.22
 20
95.715
 10
2366.79
 20
92.145
 10
2381.08
 20
92.145
 10
2384.65
 20
95.715
 10
2384.65
 20
102.855
 10
2381.08
 20
106.43
 10
2363.22
 20
106.43
 10
2356.08
 20
113.57
 10
2356.08
 20
127.855
 10
2363.22
 20
135.0
 10
2384.65
 20
135.0
 10
2391.79
 20
127.855
 10
2384.65
 20
124.285
 10
2381.08
 20
127.855
 10
2366.79
 20
127.855
 10
2363.22
 20
124.285
 10
2363.22
 20
117.145
 10
2366.79
 20
113.57
 10
2384.65
 20
113.57
 10
2391.79
 20
106.43
 10
2391.79
 20
92.145
 10
2384.65
 20
85.0
 10
2363.22
 20
85.0
  0
LWPOLYLINE
  5
98
330
1F
100
AcDbEntity
  8
text2
100
AcDbPolyline
 90
       20
 70
     1
 43
0.0
 10
2406.08
 20
92.145
 10
2406.08
 20
127.855
 10
2413.22
 20
135.0
 10
2434.65
 20
135.0
 10
2441.79
 20
127.855
 10
2441.79
 20
120.715
 10
2434.65
 20
120.715
 10
2434.65
 20
124.285
 10
2431.08
 20
127.855
 10
2416.79
 20
127.855
 10
2413.22
 20
124.285
 10
2413.22
 20
95.715
 10
2416.79
 20
92.145
 10
2431.08
 20
92.145
 10
2434.65
 20
95.715
 10
2434.65
 20
99.285
 10
2441.79
 20
99.285
 10
2441.79
 20
92.145
 10
2434.65
 20
85.0
 10
2413.22
 20
85.0
  0
LWPOLYLINE
  5
99
330
1F
100
AcDbEntity
  8
text2
100
AcDbPolyline
 90
        8
 70
     1
 43
0.0
 10
2459.65
 20
92.145
 10
2459.65
 20
127.855
 10
2466.79
 20
135.0
 10
2481.08
 20
135.0
 10
2488.22
 20
127.855
 10
2488.22
 20
92.145
 10
2481.08
 20
85.0
 10
2466.79
 20
85.0
  0
LWPOLYLINE
  5
9A
330
1F
100
AcDbEntity
  8
text2
100
AcDbPolyline
 90
        8
 70
     1
 43
0.0
 10
2466.79
 20
95.715
 10
2466.79
 20
124.285
 10
2470.365
 20
127.855
 10
2477.505
 20
127.855
 10
2481.08
 20
124.285
 10
2481.08
 20
95.715
 10
2477.505
 20
92.145
 10
2470.365
 20
92.145
  0
LWPOLYLINE
  5
9B
330
1F
100
AcDbEntity
  8
text2
100
AcDbPolyline
 90
        8
 70
     1
 43
0.0
 10
2509.65
 20
92.145
 10
2509.65
 20
127.855
 10
2516.79
 20
135.0
 10
2531.08
 20
135.0
 10
2538.22
 20
127.855
 10
2538.22
 20
92.145
 10
2531.08
 20
85.0
 10
2516.79
 20
85.0
  0
LWPOLYLINE
  5
9C
330
1F
100
AcDbEntity
  8
text2
100
AcDbPolyline
 90
        8
 70
     1
 43
0.0
 10
2516.79
 20
95.715
 10
2516.79
 20
124.285
 10
2520.365
 20
127.855
 10
2527.505
 20
127.855
 10
2531.08
 20
124.285
 10
2531.08
 20
95.715
 10
2527.505
 20
92.145
 10
2520.365
 20
92.145
  0
LWPOLYLINE
  5
9D
330
1F
100
AcDbEntity
  8
text2
100
AcDbPolyline
 90
       10
 70
     1
 43
0.0
 10
2563.22
 20
85.0
 10
2563.22
 20
92.145
 10
2570.365
 20
92.145
 10
2570.365
 20
127.855
 10
2563.22
 20
127.855
 10
2570.365
 20
135.0
 10
2577.505
 20
135.0
 10
2577.505
 20
92.145
 10
2584.65
 20
92.145
 10
2584.65
 20
85.0
  0
LWPOLYLINE
  5
9E
330
1F
100
AcDbEntity
  8
text2
100
AcDbPolyline
 90
       16
 70
     1
 43
0.0
 10
2606.08
 20
92.145
 10
2606.08
 20
127.855
 10
2613.22
 20
135.0
 10
2634.65
 20
135.0
 10
2641.79
 20
127.855
 10
2634.65
 20
124.285
 10
2631.08
 20
127.855
 10
2616.79
 20
127.855
 10
2613.22
 20
124.285
 10
2613.22
 20
110.0
 10
2616.79
 20
113.57
 10
2634.65
 20
113.57
 10
2641.79
 20
106.43
 10
2641.79
 20
92.145
 10
2634.65
 20
85.0
 10
2613.22
 20
85.0
  0
LWPOLYLINE
  5
9F
330
1F
100
AcDbEntity
  8
text2
100
AcDbPolyline
 90
        8
 70
     1
 43
0.0
 10
2613.22
 20
95.715
 10
2613.22
 20
99.285
 10
2620.365
 20
106.43
 10
2631.08
 20
106.43
 10
2634.65
 20
102.855
 10
2634.65
 20
95.715
 10
2631.08
 20
92.145
 10
2616.79
 20
92.145
  0
LWPOLYLINE
  5
A0
330
1F
100
AcDbEntity
  8
text2
100
AcDbPolyline
 90
        8
 70
     1
 43
0.0
 10
2767.858
 20
316.5
 10
2767.858
 20
366.5
 10
2796.428
 20
366.5
 10
2803.568
 20
359.355
 10
2803.568
 20
345.07
 10
2796.428
 20
337.93
 10
2774.998
 20
337.93
 10
2774.998
 20
316.5
  0
LWPOLYLINE
  5
A1
330
1F
100
AcDbEntity
  8
text2
100
AcDbPolyline
 90
        6
 70
     1
 43
0.0
 10
2774.998
 20
345.07
 10
2792.858
 20
345.07
 10
2796.428
 20
348.645
 10
2796.428
 20
355.785
 10
2792.858
 20
359.355
 10
2774.998
 20
359.355
  0
LWPOLYLINE
  5
A2
330
1F
100
AcDbEntity
  8
text2
100
AcDbPolyline
 90
       25
 70
     1
 43
0.0
 10
2817.858
 20
323.645
 10
2824.998
 20
327.215
 10
2828.568
 20
323.645
 10
2842.858
 20
323.645
 10
2846.428
 20
327.215
 10
2846.428
 20
330.785
 10
2839.283
 20
337.93
 10
2832.143
 20
337.93
 10
2832.143
 20
345.07
 10
2839.283
 20
345.07
 10
2846.428
 20
352.215
 10
2846.428
 20
355.785
 10
2842.858
 20
359.355
 10
2828.568
 20
359.355
 10
2824.998
 20
355.785
 10
2817.858
 20
359.355
 10
2824.998
 20
366.5
 10
2846.428
 20
366.5
 10
2853.568
 20
359.355
 10
2853.568
 20
348.645
 10
2846.428
 20
341.5
 10
2853.568
 20
334.355
 10
2853.568
 20
323.645
 10
2846.428
 20
316.5
 10
2824.998
 20
316.5
  0
LWPOLYLINE
  5
A3
330
1F
100
AcDbEntity
  8
text2
100
AcDbPolyline
 90
        8
 70
     1
 43
0.0
 10
1639.86
 20
87.07000000000001
 10
1639.86
 20
137.07
 10
1668.43
 20
137.07
 10
1675.57
 20
129.925
 10
1675.57
 20
115.64
 10
1668.43
 20
108.5
 10
1647.0
 20
108.5
 10
1647.0
 20
87.07000000000001
  0
LWPOLYLINE
  5
A4
330
1F
100
AcDbEntity
  8
text2
100
AcDbPolyline
 90
        6
 70
     1
 43
0.0
 10
1647.0
 20
115.64
 10
1664.86
 20
115.64
 10
1668.43
 20
119.215
 10
1668.43
 20
126.355
 10
1664.86
 20
129.925
 10
1647.0
 20
129.925
  0
LWPOLYLINE
  5
A5
330
1F
100
AcDbEntity
  8
text2
100
AcDbPolyline
 90
       11
 70
     1
 43
0.0
 10
1711.285
 20
87.07000000000001
 10
1711.285
 20
104.925
 10
1689.86
 20
104.925
 10
1689.86
 20
112.07
 10
1711.285
 20
137.07
 10
1718.43
 20
137.07
 10
1718.43
 20
112.07
 10
1725.57
 20
112.07
 10
1725.57
 20
104.925
 10
1718.43
 20
104.925
 10
1718.43
 20
87.07000000000001
  0
LWPOLYLINE
  5
A6
330
1F
100
AcDbEntity
  8
text2
100
AcDbPolyline
 90
        3
 70
     1
 43
0.0
 10
1711.285
 20
112.07
 10
1697.0
 20
112.07
 10
1711.285
 20
126.355
  0
LWPOLYLINE
  5
A7
330
1F
100
AcDbEntity
  8
text2
100
AcDbPolyline
 90
        8
 70
     1
 43
0.0
 10
65.0
 20
1192.0
 10
65.0
 20
1242.0
 10
93.57000000000001
 20
1242.0
 10
100.71
 20
1234.855
 10
100.71
 20
1220.57
 10
93.57000000000001
 20
1213.43
 10
72.14
 20
1213.43
 10
72.14
 20
1192.0
  0
LWPOLYLINE
  5
A8
330
1F
100
AcDbEntity
  8
text2
100
AcDbPolyline
 90
        6
 70
     1
 43
0.0
 10
72.14
 20
1220.57
 10
90.0
 20
1220.57
 10
93.57000000000001
 20
1224.145
 10
93.57000000000001
 20
1231.285
 10
90.0
 20
1234.855
 10
72.14
 20
1234.855
  0
LWPOLYLINE
  5
A9
330
1F
100
AcDbEntity
  8
text2
100
AcDbPolyline
 90
       18
 70
     1
 43
0.0
 10
115.0
 20
1199.145
 10
122.14
 20
1202.715
 10
125.71
 20
1199.145
 10
140.0
 20
1199.145
 10
143.57
 20
1202.715
 10
143.57
 20
1213.43
 10
140.0
 20
1217.0
 10
115.0
 20
1217.0
 10
115.0
 20
1242.0
 10
150.71
 20
1242.0
 10
150.71
 20
1234.855
 10
122.14
 20
1234.855
 10
122.14
 20
1224.145
 10
143.57
 20
1224.145
 10
150.71
 20
1217.0
 10
150.71
 20
1199.145
 10
143.57
 20
1192.0
 10
122.14
 20
1192.0
  0
LWPOLYLINE
  5
AA
330
1F
100
AcDbEntity
  8
text2
100
AcDbPolyline
 90
        4
 70
     1
 43
0.0
 10
2859.0
 20
1237.5
 10
2859.0
 20
1312.5
 10
2934.0
 20
1312.5
 10
2934.0
 20
1237.5
  0
LWPOLYLINE
  5
AB
330
1F
100
AcDbEntity
  8
text2
100
AcDbPolyline
 90
        4
 70
     1
 43
0.0
 10
2859.0
 20
1112.5
 10
2859.0
 20
1187.5
 10
2934.0
 20
1187.5
 10
2934.0
 20
1112.5
  0
LWPOLYLINE
  5
AC
330
1F
100
AcDbEntity
  8
text2
100
AcDbPolyline
 90
        4
 70
     1
 43
0.0
 10
2859.0
 20
987.5
 10
2859.0
 20
1062.5
 10
2934.0
 20
1062.5
 10
2934.0
 20
987.5
  0
LWPOLYLINE
  5
AD
330
1F
100
AcDbEntity
  8
text2
100
AcDbPolyline
 90
        4
 70
     1
 43
0.0
 10
2859.0
 20
862.5
 10
2859.0
 20
937.5
 10
2934.0
 20
937.5
 10
2934.0
 20
862.5
  0
LWPOLYLINE
  5
AE
330
1F
100
AcDbEntity
  8
text2
100
AcDbPolyline
 90
        4
 70
     1
 43
0.0
 10
2859.0
 20
737.5
 10
2859.0
 20
812.5
 10
2934.0
 20
812.5
 10
2934.0
 20
737.5
  0
LWPOLYLINE
  5
AF
330
1F
100
AcDbEntity
  8
text2
100
AcDbPolyline
 90
        4
 70
     1
 43
0.0
 10
2859.0
 20
612.5
 10
2859.0
 20
687.5
 10
2934.0
 20
687.5
 10
2934.0
 20
612.5
  0
LWPOLYLINE
  5
B0
330
1F
100
AcDbEntity
  8
text2
100
AcDbPolyline
 90
        4
 70
     1
 43
0.0
 10
2859.0
 20
487.5
 10
2859.0
 20
562.5
 10
2934.0
 20
562.5
 10
2934.0
 20
487.5
  0
LWPOLYLINE
  5
B1
330
1F
100
AcDbEntity
  8
text2
100
AcDbPolyline
 90
        4
 70
     1
 43
0.0
 10
902.5
 20
66.0
 10
902.5
 20
223.0
 10
997.5
 20
223.0
 10
997.5
 20
66.0
  0
LWPOLYLINE
  5
B2
330
1F
100
AcDbEntity
  8
text2
100
AcDbPolyline
 90
      278
 70
     1
 43
0.0
 10
2778.89
 20
127.4
 10
2780.49
 20
128.6
 10
2782.09
 20
130.2
 10
2783.69
 20
131.4
 10
2784.89
 20
132.6
 10
2785.69
 20
134.2
 10
2786.49
 20
135.4
 10
2788.09
 20
138.6
 10
2788.49
 20
139.8
 10
2788.49
 20
141.4
 10
2788.89
 20
143.4
 10
2788.89
 20
145.0
 10
2788.49
 20
147.8
 10
2787.29
 20
151.4
 10
2785.29
 20
154.6
 10
2782.49
 20
157.8
 10
2779.29
 20
160.6
 10
2775.29
 20
163.0
 10
2774.49
 20
163.8
 10
2772.49
 20
161.4
 10
2770.09
 20
157.8
 10
2767.69
 20
153.8
 10
2765.69
 20
149.8
 10
2764.09
 20
145.8
 10
2762.89
 20
141.8
 10
2762.09
 20
137.8
 10
2761.69
 20
133.8
 10
2762.09
 20
130.2
 10
2762.49
 20
127.0
 10
2763.69
 20
123.8
 10
2764.09
 20
123.4
 10
2764.89
 20
123.4
 10
2770.49
 20
124.2
 10
2773.29
 20
125.0
 10
2775.69
 20
125.8
 10
2772.89
 20
124.6
 10
2769.69
 20
123.8
 10
2766.49
 20
122.6
 10
2764.49
 20
122.2
 10
2764.89
 20
121.4
 10
2767.29
 20
119.0
 10
2768.89
 20
117.8
 10
2770.49
 20
117.0
 10
2774.49
 20
115.4
 10
2778.49
 20
114.6
 10
2776.09
 20
114.6
 10
2773.29
 20
115.0
 10
2768.49
 20
116.6
 10
2766.09
 20
117.8
 10
2763.69
 20
118.6
 10
2761.69
 20
120.2
 10
2760.09
 20
121.4
 10
2759.29
 20
121.0
 10
2747.29
 20
119.8
 10
2739.29
 20
119.8
 10
2735.29
 20
120.2
 10
2730.89
 20
120.6
 10
2724.49
 20
121.8
 10
2717.29
 20
123.8
 10
2710.49
 20
126.2
 10
2704.09
 20
128.6
 10
2698.49
 20
131.8
 10
2693.29
 20
135.4
 10
2688.49
 20
139.0
 10
2684.89
 20
143.0
 10
2681.69
 20
147.4
 10
2679.69
 20
151.8
 10
2678.09
 20
156.2
 10
2677.69
 20
160.6
 10
2678.09
 20
164.6
 10
2678.89
 20
167.0
 10
2679.69
 20
169.0
 10
2680.89
 20
171.4
 10
2682.49
 20
173.4
 10
2686.49
 20
177.4
 10
2688.89
 20
179.0
 10
2691.29
 20
181.0
 10
2694.09
 20
182.6
 10
2699.69
 20
185.0
 10
2702.89
 20
186.2
 10
2698.09
 20
183.8
 10
2696.49
 20
182.6
 10
2694.49
 20
181.4
 10
2692.89
 20
180.2
 10
2689.29
 20
175.4
 10
2688.49
 20
173.8
 10
2687.69
 20
171.8
 10
2686.89
 20
167.8
 10
2686.49
 20
164.2
 10
2686.89
 20
159.8
 10
2688.09
 20
155.0
 10
2690.49
 20
151.0
 10
2693.69
 20
146.6
 10
2697.29
 20
142.6
 10
2702.09
 20
139.0
 10
2707.29
 20
135.4
 10
2712.89
 20
132.2
 10
2719.29
 20
129.4
 10
2726.09
 20
127.0
 10
2733.29
 20
125.4
 10
2739.69
 20
124.2
 10
2742.89
 20
123.8
 10
2746.49
 20
123.4
 10
2749.69
 20
123.0
 10
2758.09
 20
123.0
 10
2757.29
 20
123.4
 10
2753.29
 20
127.4
 10
2751.69
 20
129.8
 10
2748.89
 20
133.4
 10
2746.49
 20
138.2
 10
2746.09
 20
139.4
 10
2745.69
 20
139.8
 10
2744.89
 20
141.0
 10
2743.69
 20
142.2
 10
2742.89
 20
143.4
 10
2740.49
 20
145.0
 10
2739.29
 20
146.2
 10
2738.09
 20
146.6
 10
2735.69
 20
148.2
 10
2734.49
 20
148.6
 10
2732.89
 20
149.0
 10
2731.29
 20
149.0
 10
2729.69
 20
149.4
 10
2728.49
 20
149.4
 10
2726.89
 20
149.8
 10
2725.29
 20
149.4
 10
2723.69
 20
149.4
 10
2722.09
 20
149.0
 10
2720.89
 20
148.6
 10
2717.69
 20
147.8
 10
2716.49
 20
147.0
 10
2714.89
 20
146.2
 10
2713.29
 20
145.0
 10
2712.09
 20
144.2
 10
2714.89
 20
147.0
 10
2716.89
 20
148.2
 10
2718.49
 20
149.0
 10
2720.49
 20
150.2
 10
2722.09
 20
151.0
 10
2724.09
 20
151.8
 10
2725.69
 20
152.2
 10
2727.69
 20
153.0
 10
2729.29
 20
153.0
 10
2731.29
 20
153.4
 10
2733.29
 20
153.4
 10
2734.89
 20
153.0
 10
2736.89
 20
153.0
 10
2738.49
 20
152.2
 10
2740.49
 20
151.8
 10
2742.89
 20
150.6
 10
2742.49
 20
153.8
 10
2742.49
 20
159.4
 10
2742.89
 20
164.6
 10
2744.09
 20
169.8
 10
2744.49
 20
170.6
 10
2742.49
 20
170.6
 10
2736.89
 20
170.2
 10
2734.09
 20
169.8
 10
2731.29
 20
169.8
 10
2725.69
 20
169.0
 10
2723.29
 20
168.6
 10
2720.49
 20
167.8
 10
2718.09
 20
167.4
 10
2716.09
 20
166.6
 10
2713.69
 20
165.8
 10
2711.29
 20
164.6
 10
2709.29
 20
163.8
 10
2711.69
 20
165.4
 10
2714.49
 20
166.6
 10
2717.29
 20
168.2
 10
2720.09
 20
169.4
 10
2723.29
 20
170.2
 10
2726.49
 20
171.4
 10
2729.69
 20
172.2
 10
2733.29
 20
173.0
 10
2736.49
 20
173.8
 10
2743.69
 20
174.6
 10
2743.69
 20
175.8
 10
2742.89
 20
177.4
 10
2742.09
 20
178.6
 10
2741.29
 20
180.2
 10
2739.69
 20
182.6
 10
2736.09
 20
186.2
 10
2733.69
 20
187.8
 10
2732.09
 20
188.6
 10
2730.89
 20
189.0
 10
2729.29
 20
189.8
 10
2728.09
 20
190.2
 10
2726.49
 20
190.6
 10
2724.89
 20
190.6
 10
2723.29
 20
191.0
 10
2721.69
 20
191.0
 10
2720.09
 20
190.6
 10
2718.09
 20
190.6
 10
2716.49
 20
190.2
 10
2716.09
 20
190.2
 10
2718.49
 20
191.0
 10
2722.49
 20
191.8
 10
2730.49
 20
191.8
 10
2734.49
 20
191.0
 10
2736.09
 20
190.6
 10
2737.69
 20
189.8
 10
2739.69
 20
189.0
 10
2741.29
 20
187.8
 10
2742.49
 20
187.0
 10
2746.89
 20
182.6
 10
2747.69
 20
181.0
 10
2748.49
 20
180.2
 10
2750.89
 20
183.8
 10
2754.09
 20
188.2
 10
2757.69
 20
191.4
 10
2759.69
 20
193.0
 10
2762.09
 20
194.6
 10
2766.89
 20
197.0
 10
2774.09
 20
199.4
 10
2776.49
 20
199.8
 10
2784.09
 20
199.8
 10
2786.89
 20
199.4
 10
2784.49
 20
199.4
 10
2782.09
 20
199.0
 10
2780.09
 20
199.0
 10
2778.09
 20
198.2
 10
2776.09
 20
197.8
 10
2772.09
 20
196.2
 10
2770.49
 20
195.4
 10
2768.89
 20
194.2
 10
2767.69
 20
193.4
 10
2766.09
 20
192.2
 10
2762.49
 20
188.6
 10
2760.09
 20
185.4
 10
2756.09
 20
176.6
 10
2755.69
 20
174.6
 10
2761.29
 20
174.2
 10
2767.29
 20
173.0
 10
2772.49
 20
171.4
 10
2774.09
 20
171.0
 10
2776.49
 20
172.6
 10
2779.29
 20
174.2
 10
2781.29
 20
175.4
 10
2783.69
 20
176.2
 10
2786.09
 20
177.4
 10
2788.49
 20
178.2
 10
2790.89
 20
178.6
 10
2793.69
 20
179.4
 10
2798.49
 20
180.2
 10
2809.69
 20
180.2
 10
2811.69
 20
179.8
 10
2806.49
 20
179.8
 10
2804.49
 20
179.4
 10
2802.49
 20
179.4
 10
2800.89
 20
179.0
 10
2798.89
 20
178.2
 10
2796.89
 20
177.8
 10
2794.89
 20
177.0
 10
2792.89
 20
176.6
 10
2791.29
 20
175.8
 10
2789.29
 20
174.6
 10
2787.29
 20
173.8
 10
2785.29
 20
172.6
 10
2782.89
 20
171.0
 10
2779.69
 20
168.6
 10
2782.09
 20
167.4
 10
2785.69
 20
165.0
 10
2789.29
 20
162.2
 10
2791.69
 20
159.0
 10
2793.69
 20
155.8
 10
2794.89
 20
152.2
 10
2795.29
 20
149.0
 10
2795.29
 20
147.0
 10
2794.89
 20
145.0
 10
2793.29
 20
141.0
 10
2792.09
 20
139.4
 10
2788.89
 20
135.4
 10
2787.29
 20
133.8
 10
2785.29
 20
132.2
 10
2783.29
 20
130.2
 10
2781.29
 20
129.0
 10
2778.89
 20
127.4
  0
LWPOLYLINE
  5
B3
330
1F
100
AcDbEntity
  8
text2
100
AcDbPolyline
 90
       74
 70
     1
 43
0.0
 10
2846.09
 20
155.0
 10
2846.49
 20
151.8
 10
2846.49
 20
146.2
 10
2844.49
 20
139.8
 10
2841.29
 20
133.8
 10
2836.89
 20
128.2
 10
2831.29
 20
123.0
 10
2824.49
 20
117.8
 10
2816.49
 20
113.8
 10
2807.69
 20
109.8
 10
2798.09
 20
106.6
 10
2787.69
 20
104.2
 10
2776.89
 20
102.6
 10
2765.29
 20
101.4
 10
2755.29
 20
101.4
 10
2748.89
 20
101.8
 10
2742.49
 20
102.2
 10
2736.09
 20
102.6
 10
2730.09
 20
103.8
 10
2724.09
 20
105.0
 10
2718.09
 20
106.2
 10
2712.49
 20
107.8
 10
2707.29
 20
109.4
 10
2702.09
 20
111.4
 10
2697.29
 20
113.4
 10
2692.49
 20
115.8
 10
2688.49
 20
117.8
 10
2692.49
 20
116.2
 10
2696.09
 20
114.6
 10
2700.09
 20
113.0
 10
2704.49
 20
111.4
 10
2708.49
 20
110.2
 10
2712.89
 20
109.4
 10
2717.69
 20
108.2
 10
2722.09
 20
107.4
 10
2726.89
 20
107.0
 10
2732.09
 20
106.6
 10
2737.29
 20
106.2
 10
2752.49
 20
106.2
 10
2764.09
 20
107.4
 10
2774.89
 20
109.0
 10
2785.29
 20
111.4
 10
2794.89
 20
114.6
 10
2803.69
 20
118.6
 10
2811.69
 20
122.6
 10
2818.49
 20
127.4
 10
2824.09
 20
133.0
 10
2828.49
 20
138.6
 10
2831.69
 20
144.6
 10
2833.69
 20
151.0
 10
2834.09
 20
156.2
 10
2833.69
 20
159.4
 10
2833.29
 20
162.2
 10
2832.89
 20
165.0
 10
2832.09
 20
167.8
 10
2830.89
 20
170.6
 10
2829.29
 20
173.4
 10
2827.69
 20
175.8
 10
2825.69
 20
178.2
 10
2823.69
 20
180.6
 10
2820.89
 20
183.0
 10
2818.09
 20
185.0
 10
2814.89
 20
187.4
 10
2818.89
 20
185.0
 10
2823.29
 20
182.6
 10
2826.89
 20
180.2
 10
2830.49
 20
177.4
 10
2834.09
 20
174.6
 10
2836.89
 20
171.4
 10
2839.69
 20
168.2
 10
2842.09
 20
165.4
 10
2843.69
 20
161.8
 10
2845.29
 20
158.6
 10
2846.09
 20
155.0
  0
LWPOLYLINE
  5
B4
330
1F
100
AcDbEntity
  8
text2
100
AcDbPolyline
 90
       27
 70
     1
 43
0.0
 10
370.0
 20
2322.8
 10
370.0
 20
2434.0
 10
487.4
 20
2434.0
 10
491.8
 20
2433.3
 10
496.5
 20
2430.9
 10
500.1
 20
2427.3
 10
502.5
 20
2422.6
 10
503.3
 20
2417.5
 10
502.5
 20
2412.4
 10
500.1
 20
2407.7
 10
496.5
 20
2404.1
 10
491.8
 20
2401.7
 10
487.4
 20
2401.0
 10
478.2
 20
2401.0
 10
478.2
 20
2332.1
 10
403.0
 20
2332.1
 10
403.0
 20
2322.8
 10
402.3
 20
2318.4
 10
399.9
 20
2313.7
 10
396.3
 20
2310.1
 10
391.6
 20
2307.7
 10
386.5
 20
2306.9
 10
381.4
 20
2307.7
 10
376.7
 20
2310.1
 10
373.1
 20
2313.7
 10
370.7
 20
2318.4
 10
370.0
 20
2322.8
  0
LWPOLYLINE
  5
B5
330
1F
100
AcDbEntity
  8
text2
100
AcDbPolyline
 90
       27
 70
     1
 43
0.0
 10
197.0
 20
2322.8
 10
197.0
 20
2332.1
 10
121.8
 20
2332.1
 10
121.8
 20
2401.0
 10
112.6
 20
2401.0
 10
108.2
 20
2401.7
 10
103.5
 20
2404.1
 10
99.9
 20
2407.7
 10
97.5
 20
2412.4
 10
96.7
 20
2417.5
 10
97.5
 20
2422.6
 10
99.9
 20
2427.3
 10
103.5
 20
2430.9
 10
108.2
 20
2433.3
 10
112.6
 20
2434.0
 10
230.0
 20
2434.0
 10
230.0
 20
2322.8
 10
229.3
 20
2318.4
 10
226.9
 20
2313.7
 10
223.3
 20
2310.1
 10
218.6
 20
2307.7
 10
213.5
 20
2306.9
 10
208.4
 20
2307.7
 10
203.7
 20
2310.1
 10
200.1
 20
2313.7
 10
197.7
 20
2318.4
 10
197.0
 20
2322.8
  0
LWPOLYLINE
  5
B6
330
1F
100
AcDbEntity
  8
text2
100
AcDbPolyline
 90
        8
 70
     1
 43
0.0
 10
316.5
 20
2288.8
 10
316.5
 20
2278.6
 10
283.5
 20
2278.6
 10
283.5
 20
2288.8
 10
271.0
 20
2318.8
 10
271.0
 20
2434.0
 10
329.0
 20
2434.0
 10
329.0
 20
2318.8
  0
LWPOLYLINE
  5
B7
330
1F
100
AcDbEntity
  8
text2
100
AcDbPolyline
 90
        4
 70
     1
 43
0.0
 10
2302.5
 20
2277.0
 10
2302.5
 20
2434.0
 10
2397.5
 20
2434.0
 10
2397.5
 20
2277.0
  0
ENDSEC
  0
SECTION
  2
OBJECTS
  0
DICTIONARY
  5
C
330
0
100
AcDbDictionary
281
     1
  3
ACAD_GROUP
350
D
  3
ACAD_LAYOUT
350
1A
  3
ACAD_MLEADERSTYLE
350
B9
  3
ACAD_MLINESTYLE
350
17
  3
ACAD_PLOTSETTINGS
350
19
  3
ACAD_PLOTSTYLENAME
350
E
  3
ACAD_SCALELIST
350
3B
  3
ACAD_TABLESTYLE
350
B8
  3
ACAD_VISUALSTYLE
350
2A
  0
DICTIONARY
  5
D
102
{ACAD_REACTORS
330
C
102
}
330
C
100
AcDbDictionary
281
     1
  0
DICTIONARY
  5
1A
102
{ACAD_REACTORS
330
C
102
}
330
C
100
AcDbDictionary
281
     1
  3
Layout1
350
1E
  3
Layout2
350
26
  3
Model
350
22
  0
DICTIONARY
  5
B9
102
{ACAD_REACTORS
330
C
102
}
330
C
100
AcDbDictionary
281
     1
  0
DICTIONARY
  5
17
102
{ACAD_REACTORS
330
C
102
}
330
C
100
AcDbDictionary
281
     1
  3
Standard
350
18
  0
DICTIONARY
  5
19
102
{ACAD_REACTORS
330
C
102
}
330
C
100
AcDbDictionary
281
     1
  0
ACDBDICTIONARYWDFLT
  5
E
102
{ACAD_REACTORS
330
C
102
}
330
C
100
AcDbDictionary
281
     1
  3
Normal
350
F
100
AcDbDictionaryWithDefault
340
F
  0
DICTIONARY
  5
3B
102
{ACAD_REACTORS
330
C
102
}
330
C
100
AcDbDictionary
281
     1
  3
A0
350
3C
  3
A1
350
3D
  3
A2
350
3E
  3
A3
350
3F
  3
A4
350
40
  3
A5
350
41
  3
A6
350
42
  3
A7
350
43
  3
A8
350
44
  3
A9
350
45
  3
B0
350
46
  3
B1
350
47
  3
B2
350
48
  3
B3
350
49
  3
B4
350
4A
  3
B5
350
4B
  3
B6
350
4C
  3
B7
350
4D
  3
B8
350
4E
  3
B9
350
4F
  3
C0
350
50
  3
C1
350
51
  3
C2
350
52
  3
C3
350
53
  3
C4
350
54
  3
C5
350
55
  3
C6
350
56
  3
C7
350
57
  3
C8
350
58
  3
C9
350
59
  3
D0
350
5A
  3
D1
350
5B
  3
D2
350
5C
  0
DICTIONARY
  5
B8
102
{ACAD_REACTORS
330
C
102
}
330
C
100
AcDbDictionary
281
     1
  0
DICTIONARY
  5
2A
102
{ACAD_REACTORS
330
C
102
}
330
C
100
AcDbDictionary
281
     1
  3
2dWireframe
350
2F
  3
3D Hidden
350
31
  3
3dWireframe
350
30
  3
Basic
350
32
  3
Brighten
350
36
  3
ColorChange
350
3A
  3
Conceptual
350
34
  3
Dim
350
35
  3
Facepattern
350
39
  3
Flat
350
2B
  3
FlatWithEdges
350
2C
  3
Gouraud
350
2D
  3
GouraudWithEdges
350
2E
  3
Linepattern
350
38
  3
Realistic
350
33
  3
Thicken
350
37
  0
LAYOUT
  5
1E
102
{ACAD_REACTORS
330
1A
102
}
330
1A
100
AcDbPlotSettings
  1

  2
none_device
  4

  6

 40
0.0
 41
0.0
 42
0.0
 43
0.0
 44
0.0
 45
0.0
 46
0.0
 47
0.0
 48
0.0
 49
0.0
140
0.0
141
0.0
142
1.0
143
1.0
 70
   688
 72
     0
 73
     0
 74
     5
  7

 75
    16
 76
     0
 77
     2
 78
   300
147
1.0
148
0.0
149
0.0
100
AcDbLayout
  1
Layout1
 70
     1
 71
     1
 10
0.0
 20
0.0
 11
12.0
 21
9.0
 12
0.0
 22
0.0
 32
0.0
 14
1.000000000000000E+20
 24
1.000000000000000E+20
 34
1.000000000000000E+20
 15
-1.000000000000000E+20
 25
-1.000000000000000E+20
 35
-1.000000000000000E+20
146
0.0
 13
0.0
 23
0.0
 33
0.0
 16
1.0
 26
0.0
 36
0.0
 17
0.0
 27
1.0
 37
0.0
 76
     0
330
1B
  0
LAYOUT
  5
26
102
{ACAD_REACTORS
330
1A
102
}
330
1A
100
AcDbPlotSettings
  1

  2
none_device
  4

  6

 40
0.0
 41
0.0
 42
0.0
 43
0.0
 44
0.0
 45
0.0
 46
0.0
 47
0.0
 48
0.0
 49
0.0
140
0.0
141
0.0
142
1.0
143
1.0
 70
   688
 72
     0
 73
     0
 74
     5
  7

 75
    16
 76
     0
 77
     2
 78
   300
147
1.0
148
0.0
149
0.0
100
AcDbLayout
  1
Layout2
 70
     1
 71
     2
 10
0.0
 20
0.0
 11
0.0
 21
0.0
 12
0.0
 22
0.0
 32
0.0
 14
0.0
 24
0.0
 34
0.0
 15
0.0
 25
0.0
 35
0.0
146
0.0
 13
0.0
 23
0.0
 33
0.0
 16
1.0
 26
0.0
 36
0.0
 17
0.0
 27
1.0
 37
0.0
 76
     0
330
23
  0
LAYOUT
  5
22
102
{ACAD_REACTORS
330
1A
102
}
330
1A
100
AcDbPlotSettings
  1

  2
none_device
  4

  6

 40
0.0
 41
0.0
 42
0.0
 43
0.0
 44
0.0
 45
0.0
 46
0.0
 47
0.0
 48
0.0
 49
0.0
140
0.0
141
0.0
142
1.0
143
1.0
 70
  1712
 72
     0
 73
     0
 74
     0
  7

 75
     0
 76
     0
 77
     2
 78
   300
147
1.0
148
0.0
149
0.0
100
AcDbLayout
  1
Model
 70
     1
 71
     0
 10
0.0
 20
0.0
 11
12.0
 21
9.0
 12
0.0
 22
0.0
 32
0.0
 14
1.000000000000000E+20
 24
1.000000000000000E+20
 34
1.000000000000000E+20
 15
-1.000000000000000E+20
 25
-1.000000000000000E+20
 35
-1.000000000000000E+20
146
0.0
 13
0.0
 23
0.0
 33
0.0
 16
1.0
 26
0.0
 36
0.0
 17
0.0
 27
1.0
 37
0.0
 76
     0
330
1F
331
29
  0
MLINESTYLE
  5
18
102
{ACAD_REACTORS
330
17
102
}
330
17
100
AcDbMlineStyle
  2
Standard
 70
     0
  3

 62
   256
 51
90.0
 52
90.0
 71
     2
 49
0.5
 62
   256
  6
BYLAYER
 49
-0.5
 62
   256
  6
BYLAYER
  0
ACDBPLACEHOLDER
  5
F
102
{ACAD_REACTORS
330
E
102
}
330
E
  0
SCALE
  5
3C
102
{ACAD_REACTORS
330
3B
102
}
330
3B
100
AcDbScale
 70
     0
300
1:1
140
1.0
141
1.0
290
     1
  0
SCALE
  5
3D
102
{ACAD_REACTORS
330
3B
102
}
330
3B
100
AcDbScale
 70
     0
300
1:2
140
1.0
141
2.0
290
     0
  0
SCALE
  5
3E
102
{ACAD_REACTORS
330
3B
102
}
330
3B
100
AcDbScale
 70
     0
300
1:4
140
1.0
141
4.0
290
     0
  0
SCALE
  5
3F
102
{ACAD_REACTORS
330
3B
102
}
330
3B
100
AcDbScale
 70
     0
300
1:5
140
1.0
141
5.0
290
     0
  0
SCALE
  5
40
102
{ACAD_REACTORS
330
3B
102
}
330
3B
100
AcDbScale
 70
     0
300
1:8
140
1.0
141
8.0
290
     0
  0
SCALE
  5
41
102
{ACAD_REACTORS
330
3B
102
}
330
3B
100
AcDbScale
 70
     0
300
1:10
140
1.0
141
10.0
290
     0
  0
SCALE
  5
42
102
{ACAD_REACTORS
330
3B
102
}
330
3B
100
AcDbScale
 70
     0
300
1:16
140
1.0
141
16.0
290
     0
  0
SCALE
  5
43
102
{ACAD_REACTORS
330
3B
102
}
330
3B
100
AcDbScale
 70
     0
300
1:20
140
1.0
141
20.0
290
     0
  0
SCALE
  5
44
102
{ACAD_REACTORS
330
3B
102
}
330
3B
100
AcDbScale
 70
     0
300
1:30
140
1.0
141
30.0
290
     0
  0
SCALE
  5
45
102
{ACAD_REACTORS
330
3B
102
}
330
3B
100
AcDbScale
 70
     0
300
1:40
140
1.0
141
40.0
290
     0
  0
SCALE
  5
46
102
{ACAD_REACTORS
330
3B
102
}
330
3B
100
AcDbScale
 70
     0
300
1:50
140
1.0
141
50.0
290
     0
  0
SCALE
  5
47
102
{ACAD_REACTORS
330
3B
102
}
330
3B
100
AcDbScale
 70
     0
300
1:100
140
1.0
141
100.0
290
     0
  0
SCALE
  5
48
102
{ACAD_REACTORS
330
3B
102
}
330
3B
100
AcDbScale
 70
     0
300
2:1
140
2.0
141
1.0
290
     0
  0
SCALE
  5
49
102
{ACAD_REACTORS
330
3B
102
}
330
3B
100
AcDbScale
 70
     0
300
4:1
140
4.0
141
1.0
290
     0
  0
SCALE
  5
4A
102
{ACAD_REACTORS
330
3B
102
}
330
3B
100
AcDbScale
 70
     0
300
8:1
140
8.0
141
1.0
290
     0
  0
SCALE
  5
4B
102
{ACAD_REACTORS
330
3B
102
}
330
3B
100
AcDbScale
 70
     0
300
10:1
140
10.0
141
1.0
290
     0
  0
SCALE
  5
4C
102
{ACAD_REACTORS
330
3B
102
}
330
3B
100
AcDbScale
 70
     0
300
100:1
140
100.0
141
1.0
290
     0
  0
SCALE
  5
4D
102
{ACAD_REACTORS
330
3B
102
}
330
3B
100
AcDbScale
 70
     0
300
1/128" = 1'-0"
140
0.0078125
141
12.0
290
     0
  0
SCALE
  5
4E
102
{ACAD_REACTORS
330
3B
102
}
330
3B
100
AcDbScale
 70
     0
300
1/64" = 1'-0"
140
0.015625
141
12.0
290
     0
  0
SCALE
  5
4F
102
{ACAD_REACTORS
330
3B
102
}
330
3B
100
AcDbScale
 70
     0
300
1/32" = 1'-0"
140
0.03125
141
12.0
290
     0
  0
SCALE
  5
50
102
{ACAD_REACTORS
330
3B
102
}
330
3B
100
AcDbScale
 70
     0
300
1/16" = 1'-0"
140
0.0625
141
12.0
290
     0
  0
SCALE
  5
51
102
{ACAD_REACTORS
330
3B
102
}
330
3B
100
AcDbScale
 70
     0
300
3/32" = 1'-0"
140
0.09375
141
12.0
290
     0
  0
SCALE
  5
52
102
{ACAD_REACTORS
330
3B
102
}
330
3B
100
AcDbScale
 70
     0
300
1/8" = 1'-0"
140
0.125
141
12.0
290
     0
  0
SCALE
  5
53
102
{ACAD_REACTORS
330
3B
102
}
330
3B
100
AcDbScale
 70
     0
300
3/16" = 1'-0"
140
0.1875
141
12.0
290
     0
  0
SCALE
  5
54
102
{ACAD_REACTORS
330
3B
102
}
330
3B
100
AcDbScale
 70
     0
300
1/4" = 1'-0"
140
0.25
141
12.0
290
     0
  0
SCALE
  5
55
102
{ACAD_REACTORS
330
3B
102
}
330
3B
100
AcDbScale
 70
     0
300
3/8" = 1'-0"
140
0.375
141
12.0
290
     0
  0
SCALE
  5
56
102
{ACAD_REACTORS
330
3B
102
}
330
3B
100
AcDbScale
 70
     0
300
1/2" = 1'-0"
140
0.5
141
12.0
290
     0
  0
SCALE
  5
57
102
{ACAD_REACTORS
330
3B
102
}
330
3B
100
AcDbScale
 70
     0
300
3/4" = 1'-0"
140
0.75
141
12.0
290
     0
  0
SCALE
  5
58
102
{ACAD_REACTORS
330
3B
102
}
330
3B
100
AcDbScale
 70
     0
300
1" = 1'-0"
140
1.0
141
12.0
290
     0
  0
SCALE
  5
59
102
{ACAD_REACTORS
330
3B
102
}
330
3B
100
AcDbScale
 70
     0
300
1-1/2" = 1'-0"
140
1.5
141
12.0
290
     0
  0
SCALE
  5
5A
102
{ACAD_REACTORS
330
3B
102
}
330
3B
100
AcDbScale
 70
     0
300
3" = 1'-0"
140
3.0
141
12.0
290
     0
  0
SCALE
  5
5B
102
{ACAD_REACTORS
330
3B
102
}
330
3B
100
AcDbScale
 70
     0
300
6" = 1'-0"
140
6.0
141
12.0
290
     0
  0
SCALE
  5
5C
102
{ACAD_REACTORS
330
3B
102
}
330
3B
100
AcDbScale
 70
     0
300
1'-0" = 1'-0"
140
12.0
141
12.0
290
     0
  0
VISUALSTYLE
  5
2F
102
{ACAD_REACTORS
330
2A
102
}
330
2A
100
AcDbVisualStyle
  2
2dWireframe
 70
     4
 71
     0
 72
     2
 73
     0
 90
        0
 40
-0.6
 41
-30.0
 62
     5
 63
     7
421
 16777215
 74
     1
 91
        4
 64
     7
 65
   257
 75
     1
175
     1
 42
1.0
 92
        0
 66
   257
 43
1.0
 76
     1
 77
     6
 78
     2
 67
     7
 79
     5
170
     0
171
     0
290
     0
174
     0
 93
        1
 44
0.0
173
     0
291
     0
 45
0.0
1001
ACAD
1000
AcDbSavedByObjectVersion
1070
     0
  0
VISUALSTYLE
  5
31
102
{ACAD_REACTORS
330
2A
102
}
330
2A
100
AcDbVisualStyle
  2
3D Hidden
 70
     6
 71
     1
 72
     2
 73
     2
 90
        0
 40
-0.6
 41
-30.0
 62
     5
 63
     7
421
 16777215
 74
     2
 91
        2
 64
     7
 65
   257
 75
     2
175
     1
 42
40.0
 92
        0
 66
   257
 43
1.0
 76
     1
 77
     6
 78
     2
 67
     7
 79
     3
170
     0
171
     0
290
     0
174
     0
 93
        1
 44
0.0
173
     0
291
     0
 45
0.0
1001
ACAD
1000
AcDbSavedByObjectVersion
1070
     0
  0
VISUALSTYLE
  5
30
102
{ACAD_REACTORS
330
2A
102
}
330
2A
100
AcDbVisualStyle
  2
3dWireframe
 70
     5
 71
     0
 72
     2
 73
     0
 90
        0
 40
-0.6
 41
-30.0
 62
     5
 63
     7
421
 16777215
 74
     1
 91
        4
 64
     7
 65
   257
 75
     1
175
     1
 42
1.0
 92
        0
 66
   257
 43
1.0
 76
     1
 77
     6
 78
     2
 67
     7
 79
     5
170
     0
171
     0
290
     0
174
     0
 93
        1
 44
0.0
173
     0
291
     0
 45
0.0
1001
ACAD
1000
AcDbSavedByObjectVersion
1070
     0
  0
VISUALSTYLE
  5
32
102
{ACAD_REACTORS
330
2A
102
}
330
2A
100
AcDbVisualStyle
  2
Basic
 70
     7
 71
     1
 72
     0
 73
     1
 90
        0
 40
-0.6
 41
-30.0
 62
     5
 63
     7
421
 16777215
 74
     0
 91
        4
 64
     7
 65
   257
 75
     1
175
     1
 42
1.0
 92
        8
 66
     7
 43
1.0
 76
     1
 77
     6
 78
     2
 67
     7
 79
     5
170
     0
171
     0
290
     0
174
     0
 93
        1
 44
0.0
173
     0
291
     1
 45
0.0
1001
ACAD
1000
AcDbSavedByObjectVersion
1070
     0
  0
VISUALSTYLE
  5
36
102
{ACAD_REACTORS
330
2A
102
}
330
2A
100
AcDbVisualStyle
  2
Brighten
 70
    12
 71
     2
 72
     2
 73
     0
 90
        0
 40
-0.6
 41
-30.0
 62
     5
 63
     7
421
 16777215
 74
     1
 91
        4
 64
     7
 65
   257
 75
     1
175
     1
 42
1.0
 92
        8
 66
     7
 43
1.0
 76
     1
 77
     6
 78
     2
 67
     7
 79
     5
170
     0
171
     0
290
     0
174
     0
 93
        1
 44
50.0
173
     0
291
     1
 45
0.0
1001
ACAD
1000
AcDbSavedByObjectVersion
1070
     0
  0
VISUALSTYLE
  5
3A
102
{ACAD_REACTORS
330
2A
102
}
330
2A
100
AcDbVisualStyle
  2
ColorChange
 70
    16
 71
     2
 72
     2
 73
     3
 90
        0
 40
-0.6
 41
-30.0
 62
     5
 63
     8
421
  8421504
 74
     1
 91
        4
 64
     7
 65
   257
 75
     1
175
     1
 42
1.0
 92
        8
 66
     8
424
  8421504
 43
1.0
 76
     1
 77
     6
 78
     2
 67
     7
 79
     5
170
     0
171
     0
290
     0
174
     0
 93
        1
 44
0.0
173
     0
291
     1
 45
0.0
1001
ACAD
1000
AcDbSavedByObjectVersion
1070
     0
  0
VISUALSTYLE
  5
34
102
{ACAD_REACTORS
330
2A
102
}
330
2A
100
AcDbVisualStyle
  2
Conceptual
 70
     9
 71
     3
 72
     2
 73
     0
 90
        0
 40
-0.6
 41
-30.0
 62
     5
 63
     7
421
 16777215
 74
     2
 91
        2
 64
     7
 65
   257
 75
     1
175
     1
 42
40.0
 92
        8
 66
     7
 43
1.0
 76
     1
 77
     6
 78
     2
 67
     7
 79
     3
170
     0
171
     0
290
     0
174
     0
 93
        1
 44
0.0
173
     0
291
     0
 45
0.0
1001
ACAD
1000
AcDbSavedByObjectVersion
1070
     0
  0
VISUALSTYLE
  5
35
102
{ACAD_REACTORS
330
2A
102
}
330
2A
100
AcDbVisualStyle
  2
Dim
 70
    11
 71
     2
 72
     2
 73
     0
 90
        0
 40
-0.6
 41
-30.0
 62
     5
 63
     7
421
 16777215
 74
     1
 91
        4
 64
     7
 65
   257
 75
     1
175
     1
 42
1.0
 92
        8
 66
     7
 43
1.0
 76
     1
 77
     6
 78
     2
 67
     7
 79
     5
170
     0
171
     0
290
     0
174
     0
 93
        1
 44
-50.0
173
     0
291
     1
 45
0.0
1001
ACAD
1000
AcDbSavedByObjectVersion
1070
     0
  0
VISUALSTYLE
  5
39
102
{ACAD_REACTORS
330
2A
102
}
330
2A
100
AcDbVisualStyle
  2
Facepattern
 70
    15
 71
     2
 72
     2
 73
     0
 90
        0
 40
-0.6
 41
-30.0
 62
     5
 63
     7
421
 16777215
 74
     1
 91
        4
 64
     7
 65
   257
 75
     1
175
     1
 42
1.0
 92
        8
 66
     7
 43
1.0
 76
     1
 77
     6
 78
     2
 67
     7
 79
     5
170
     0
171
     0
290
     0
174
     0
 93
        1
 44
0.0
173
     0
291
     1
 45
0.0
1001
ACAD
1000
AcDbSavedByObjectVersion
1070
     0
  0
VISUALSTYLE
  5
2B
102
{ACAD_REACTORS
330
2A
102
}
330
2A
100
AcDbVisualStyle
  2
Flat
 70
     0
 71
     2
 72
     1
 73
     1
 90
        2
 40
-0.6
 41
30.0
 62
     5
 63
     7
421
 16777215
 74
     0
 91
        4
 64
     7
 65
   257
 75
     1
175
     1
 42
1.0
 92
        8
 66
     7
 43
1.0
 76
     1
 77
     6
 78
     2
 67
     7
 79
     5
170
     0
171
     0
290
     0
174
     0
 93
       13
 44
0.0
173
     0
291
     1
 45
0.0
1001
ACAD
1000
AcDbSavedByObjectVersion
1070
     0
  0
VISUALSTYLE
  5
2C
102
{ACAD_REACTORS
330
2A
102
}
330
2A
100
AcDbVisualStyle
  2
FlatWithEdges
 70
     1
 71
     2
 72
     1
 73
     1
 90
        2
 40
-0.6
 41
30.0
 62
     5
 63
     7
421
 16777215
 74
     1
 91
        4
 64
     7
 65
   257
 75
     1
175
     1
 42
1.0
 92
        0
 66
   257
 43
1.0
 76
     1
 77
     6
 78
     2
 67
     7
 79
     5
170
     0
171
     0
290
     0
174
     0
 93
       13
 44
0.0
173
     0
291
     1
 45
0.0
1001
ACAD
1000
AcDbSavedByObjectVersion
1070
     0
  0
VISUALSTYLE
  5
2D
102
{ACAD_REACTORS
330
2A
102
}
330
2A
100
AcDbVisualStyle
  2
Gouraud
 70
     2
 71
     2
 72
     2
 73
     1
 90
        2
 40
-0.6
 41
30.0
 62
     5
 63
     7
421
 16777215
 74
     0
 91
        4
 64
     7
 65
   257
 75
     1
175
     1
 42
1.0
 92
        0
 66
     7
 43
1.0
 76
     1
 77
     6
 78
     2
 67
     7
 79
     5
170
     0
171
     0
290
     0
174
     0
 93
       13
 44
0.0
173
     0
291
     1
 45
0.0
1001
ACAD
1000
AcDbSavedByObjectVersion
1070
     0
  0
VISUALSTYLE
  5
2E
102
{ACAD_REACTORS
330
2A
102
}
330
2A
100
AcDbVisualStyle
  2
GouraudWithEdges
 70
     3
 71
     2
 72
     2
 73
     1
 90
        2
 40
-0.6
 41
30.0
 62
     5
 63
     7
421
 16777215
 74
     1
 91
        4
 64
     7
 65
   257
 75
     1
175
     1
 42
1.0
 92
        0
 66
   257
 43
1.0
 76
     1
 77
     6
 78
     2
 67
     7
 79
     5
170
     0
171
     0
290
     0
174
     0
 93
       13
 44
0.0
173
     0
291
     1
 45
0.0
1001
ACAD
1000
AcDbSavedByObjectVersion
1070
     0
  0
VISUALSTYLE
  5
38
102
{ACAD_REACTORS
330
2A
102
}
330
2A
100
AcDbVisualStyle
  2
Linepattern
 70
    14
 71
     2
 72
     2
 73
     0
 90
        0
 40
-0.6
 41
-30.0
 62
     5
 63
     7
421
 16777215
 74
     1
 91
        4
 64
     7
 65
   257
 75
     7
175
     7
 42
1.0
 92
        8
 66
     7
 43
1.0
 76
     1
 77
     6
 78
     2
 67
     7
 79
     5
170
     0
171
     0
290
     0
174
     0
 93
        1
 44
0.0
173
     0
291
     1
 45
0.0
1001
ACAD
1000
AcDbSavedByObjectVersion
1070
     0
  0
VISUALSTYLE
  5
33
102
{ACAD_REACTORS
330
2A
102
}
330
2A
100
AcDbVisualStyle
  2
Realistic
 70
     8
 71
     2
 72
     2
 73
     0
 90
        0
 40
-0.6
 41
-30.0
 62
     5
 63
     7
421
 16777215
 74
     1
 91
        0
 64
     7
 65
   257
 75
     1
175
     1
 42
1.0
 92
        8
 66
     8
424
  7895160
 43
1.0
 76
     1
 77
     6
 78
     2
 67
     7
 79
     5
170
     0
171
     0
290
     0
174
     0
 93
       13
 44
0.0
173
     0
291
     0
 45
0.0
1001
ACAD
1000
AcDbSavedByObjectVersion
1070
     0
  0
VISUALSTYLE
  5
37
102
{ACAD_REACTORS
330
2A
102
}
330
2A
100
AcDbVisualStyle
  2
Thicken
 70
    13
 71
     2
 72
     2
 73
     0
 90
        0
 40
-0.6
 41
-30.0
 62
     5
 63
     7
421
 16777215
 74
     1
 91
        4
 64
     7
 65
   257
 75
     1
175
     1
 42
1.0
 92
       12
 66
     7
 43
1.0
 76
     1
 77
     6
 78
     2
 67
     7
 79
     5
170
     0
171
     0
290
     0
174
     0
 93
        1
 44
0.0
173
     0
291
     1
 45
0.0
1001
ACAD
1000
AcDbSavedByObjectVersion
1070
     0
  0
ENDSEC
  0
EOF
