  0
SECTION
  2
HEADER
  9
$ACADVER
  1
AC1018
  9
$ACADMAINTVER
 70
     0
  9
$DWGCODEPAGE
  3
ANSI_1252
  9
$INSBASE
 10
0.0
 20
0.0
 30
0.0
  9
$EXTMIN
 10
1.000000000000000E+20
 20
1.000000000000000E+20
 30
1.000000000000000E+20
  9
$EXTMAX
 10
-1.000000000000000E+20
 20
-1.000000000000000E+20
 30
-1.000000000000000E+20
  9
$LIMMIN
 10
0.0
 20
0.0
  9
$LIMMAX
 10
12.0
 20
9.0
  9
$ORTHOMODE
 70
     0
  9
$REGENMODE
 70
     1
  9
$FILLMODE
 70
     1
  9
$QTEXTMODE
 70
     0
  9
$MIRRTEXT
 70
     1
  9
$LTSCALE
 40
1.0
  9
$ATTMODE
 70
     1
  9
$TEXTSIZE
 40
0.2
  9
$TRACEWID
 40
0.05
  9
$TEXTSTYLE
  7
Standard
  9
$CLAYER
  8
0
  9
$CELTYPE
  6
ByLayer
  9
$CECOLOR
 62
   256
  9
$CELTSCALE
 40
1.0
  9
$DISPSILH
 70
     0
  9
$DIMSCALE
 40
1.0
  9
$DIMASZ
 40
0.18
  9
$DIMEXO
 40
0.0625
  9
$DIMDLI
 40
0.38
  9
$DIMRND
 40
0.0
  9
$DIMDLE
 40
0.0
  9
$DIMEXE
 40
0.18
  9
$DIMTP
 40
0.0
  9
$DIMTM
 40
0.0
  9
$DIMTXT
 40
0.18
  9
$DIMCEN
 40
0.09
  9
$DIMTSZ
 40
0.0
  9
$DIMTOL
 70
     0
  9
$DIMLIM
 70
     0
  9
$DIMTIH
 70
     1
  9
$DIMTOH
 70
     1
  9
$DIMSE1
 70
     0
  9
$DIMSE2
 70
     0
  9
$DIMTAD
 70
     0
  9
$DIMZIN
 70
     0
  9
$DIMBLK
  1

  9
$DIMASO
 70
     1
  9
$DIMSHO
 70
     1
  9
$DIMPOST
  1

  9
$DIMAPOST
  1

  9
$DIMALT
 70
     0
  9
$DIMALTD
 70
     2
  9
$DIMALTF
 40
25.4
  9
$DIMLFAC
 40
1.0
  9
$DIMTOFL
 70
     0
  9
$DIMTVP
 40
0.0
  9
$DIMTIX
 70
     0
  9
$DIMSOXD
 70
     0
  9
$DIMSAH
 70
     0
  9
$DIMBLK1
  1

  9
$DIMBLK2
  1

  9
$DIMSTYLE
  2
Standard
  9
$DIMCLRD
 70
     0
  9
$DIMCLRE
 70
     0
  9
$DIMCLRT
 70
     0
  9
$DIMTFAC
 40
1.0
  9
$DIMGAP
 40
0.09
  9
$DIMJUST
 70
     0
  9
$DIMSD1
 70
     0
  9
$DIMSD2
 70
     0
  9
$DIMTOLJ
 70
     1
  9
$DIMTZIN
 70
     0
  9
$DIMALTZ
 70
     0
  9
$DIMALTTZ
 70
     0
  9
$DIMUPT
 70
     0
  9
$DIMDEC
 70
     4
  9
$DIMTDEC
 70
     4
  9
$DIMALTU
 70
     2
  9
$DIMALTTD
 70
     2
  9
$DIMTXSTY
  7
Standard
  9
$DIMAUNIT
 70
     0
  9
$DIMADEC
 70
     0
  9
$DIMALTRND
 40
0.0
  9
$DIMAZIN
 70
     0
  9
$DIMDSEP
 70
    46
  9
$DIMATFIT
 70
     3
  9
$DIMFRAC
 70
     0
  9
$DIMLDRBLK
  1

  9
$DIMLUNIT
 70
     2
  9
$DIMLWD
 70
    -2
  9
$DIMLWE
 70
    -2
  9
$DIMTMOVE
 70
     0
  9
$LUNITS
 70
     2
  9
$LUPREC
 70
     4
  9
$SKETCHINC
 40
0.1
  9
$FILLETRAD
 40
0.5
  9
$AUNITS
 70
     0
  9
$AUPREC
 70
     0
  9
$MENU
  1
.
  9
$ELEVATION
 40
0.0
  9
$PELEVATION
 40
0.0
  9
$THICKNESS
 40
0.0
  9
$LIMCHECK
 70
     0
  9
$CHAMFERA
 40
0.5
  9
$CHAMFERB
 40
0.5
  9
$CHAMFERC
 40
1.0
  9
$CHAMFERD
 40
0.0
  9
$SKPOLY
 70
     0
  9
$TDCREATE
 40
2456828.690780092
  9
$TDUCREATE
 40
2456828.607446759
  9
$TDUPDATE
 40
2456828.690780104
  9
$TDUUPDATE
 40
2456828.607446771
  9
$TDINDWG
 40
0.0000000116
  9
$TDUSRTIMER
 40
0.0000000116
  9
$USRTIMER
 70
     1
  9
$ANGBASE
 50
0.0
  9
$ANGDIR
 70
     0
  9
$PDMODE
 70
     0
  9
$PDSIZE
 40
0.0
  9
$PLINEWID
 40
0.0
  9
$SPLFRAME
 70
     0
  9
$SPLINETYPE
 70
     6
  9
$SPLINESEGS
 70
     8
  9
$HANDSEED
  5
9D
  9
$SURFTAB1
 70
     6
  9
$SURFTAB2
 70
     6
  9
$SURFTYPE
 70
     6
  9
$SURFU
 70
     6
  9
$SURFV
 70
     6
  9
$UCSBASE
  2

  9
$UCSNAME
  2

  9
$UCSORG
 10
0.0
 20
0.0
 30
0.0
  9
$UCSXDIR
 10
1.0
 20
0.0
 30
0.0
  9
$UCSYDIR
 10
0.0
 20
1.0
 30
0.0
  9
$UCSORTHOREF
  2

  9
$UCSORTHOVIEW
 70
     0
  9
$UCSORGTOP
 10
0.0
 20
0.0
 30
0.0
  9
$UCSORGBOTTOM
 10
0.0
 20
0.0
 30
0.0
  9
$UCSORGLEFT
 10
0.0
 20
0.0
 30
0.0
  9
$UCSORGRIGHT
 10
0.0
 20
0.0
 30
0.0
  9
$UCSORGFRONT
 10
0.0
 20
0.0
 30
0.0
  9
$UCSORGBACK
 10
0.0
 20
0.0
 30
0.0
  9
$PUCSBASE
  2

  9
$PUCSNAME
  2

  9
$PUCSORG
 10
0.0
 20
0.0
 30
0.0
  9
$PUCSXDIR
 10
1.0
 20
0.0
 30
0.0
  9
$PUCSYDIR
 10
0.0
 20
1.0
 30
0.0
  9
$PUCSORTHOREF
  2

  9
$PUCSORTHOVIEW
 70
     0
  9
$PUCSORGTOP
 10
0.0
 20
0.0
 30
0.0
  9
$PUCSORGBOTTOM
 10
0.0
 20
0.0
 30
0.0
  9
$PUCSORGLEFT
 10
0.0
 20
0.0
 30
0.0
  9
$PUCSORGRIGHT
 10
0.0
 20
0.0
 30
0.0
  9
$PUCSORGFRONT
 10
0.0
 20
0.0
 30
0.0
  9
$PUCSORGBACK
 10
0.0
 20
0.0
 30
0.0
  9
$USERI1
 70
     0
  9
$USERI2
 70
     0
  9
$USERI3
 70
     0
  9
$USERI4
 70
     0
  9
$USERI5
 70
     0
  9
$USERR1
 40
0.0
  9
$USERR2
 40
0.0
  9
$USERR3
 40
0.0
  9
$USERR4
 40
0.0
  9
$USERR5
 40
0.0
  9
$WORLDVIEW
 70
     1
  9
$SHADEDGE
 70
     3
  9
$SHADEDIF
 70
    70
  9
$TILEMODE
 70
     1
  9
$MAXACTVP
 70
    64
  9
$PINSBASE
 10
0.0
 20
0.0
 30
0.0
  9
$PLIMCHECK
 70
     0
  9
$PEXTMIN
 10
1.000000000000000E+20
 20
1.000000000000000E+20
 30
1.000000000000000E+20
  9
$PEXTMAX
 10
-1.000000000000000E+20
 20
-1.000000000000000E+20
 30
-1.000000000000000E+20
  9
$PLIMMIN
 10
0.0
 20
0.0
  9
$PLIMMAX
 10
12.0
 20
9.0
  9
$UNITMODE
 70
     0
  9
$VISRETAIN
 70
     1
  9
$PLINEGEN
 70
     0
  9
$PSLTSCALE
 70
     1
  9
$TREEDEPTH
 70
  3020
  9
$CMLSTYLE
  2
Standard
  9
$CMLJUST
 70
     0
  9
$CMLSCALE
 40
1.0
  9
$PROXYGRAPHICS
 70
     1
  9
$MEASUREMENT
 70
     0
  9
$CELWEIGHT
370
    -1
  9
$ENDCAPS
280
     0
  9
$JOINSTYLE
280
     0
  9
$LWDISPLAY
290
     0
  9
$INSUNITS
 70
    13
  9
$HYPERLINKBASE
  1

  9
$STYLESHEET
  1

  9
$XEDIT
290
     1
  9
$CEPSNTYPE
380
     0
  9
$PSTYLEMODE
290
     1
  9
$FINGERPRINTGUID
  2
{7FE7E6E1-38D4-4724-8890-C34293746A42}
  9
$VERSIONGUID
  2
{FAEB1C32-E019-11D5-929B-00C0DF256EC4}
  9
$EXTNAMES
290
     1
  9
$PSVPSCALE
 40
0.0
  9
$OLESTARTUP
290
     0
  9
$SORTENTS
280
   127
  9
$INDEXCTL
280
     0
  9
$HIDETEXT
280
     1
  9
$XCLIPFRAME
290
     0
  9
$HALOGAP
280
     0
  9
$OBSCOLOR
 70
   257
  9
$OBSLTYPE
280
     0
  9
$INTERSECTIONDISPLAY
280
     0
  9
$INTERSECTIONCOLOR
 70
   257
  9
$DIMASSOC
280
     2
  9
$PROJECTNAME
  1

  0
ENDSEC
  0
SECTION
  2
CLASSES
  0
CLASS
  1
ACDBDICTIONARYWDFLT
  2
AcDbDictionaryWithDefault
  3
ObjectDBX Classes
 90
        0
 91
       12
280
     0
281
     0
  0
CLASS
  1
VISUALSTYLE
  2
AcDbVisualStyle
  3
ObjectDBX Classes
 90
     4095
 91
       12
280
     0
281
     0
  0
CLASS
  1
SCALE
  2
AcDbScale
  3
ObjectDBX Classes
 90
     1153
 91
       12
280
     0
281
     0
  0
ENDSEC
  0
SECTION
  2
TABLES
  0
TABLE
  2
VPORT
  5
8
330
0
100
AcDbSymbolTable
 70
     1
  0
VPORT
  5
29
330
8
100
AcDbSymbolTableRecord
100
AcDbViewportTableRecord
  2
*Active
 70
     0
 10
0.0
 20
0.0
 11
1.0
 21
1.0
 12
10.42990654205607
 22
4.5
 13
0.0
 23
0.0
 14
0.5
 24
0.5
 15
0.5
 25
0.5
 16
0.0
 26
0.0
 36
1.0
 17
0.0
 27
0.0
 37
0.0
 40
9.0
 41
1.972972972850329
 42
50.0
 43
0.0
 44
0.0
 50
0.0
 51
0.0
 71
     0
 72
   100
 73
     1
 74
     3
 75
     0
 76
     0
 77
     0
 78
     0
281
     0
 65
     1
110
0.0
120
0.0
130
0.0
111
1.0
121
0.0
131
0.0
112
0.0
122
1.0
132
0.0
 79
     0
146
0.0
  0
ENDTAB
  0
TABLE
  2
LTYPE
  5
5
330
0
100
AcDbSymbolTable
 70
     1
  0
LTYPE
  5
14
330
5
100
AcDbSymbolTableRecord
100
AcDbLinetypeTableRecord
  2
ByBlock
 70
     0
  3

 72
    65
 73
     0
 40
0.0
  0
LTYPE
  5
15
330
5
100
AcDbSymbolTableRecord
100
AcDbLinetypeTableRecord
  2
ByLayer
 70
     0
  3

 72
    65
 73
     0
 40
0.0
  0
LTYPE
  5
16
330
5
100
AcDbSymbolTableRecord
100
AcDbLinetypeTableRecord
  2
Continuous
 70
     0
  3
Solid line
 72
    65
 73
     0
 40
0.0
  0
ENDTAB
  0
TABLE
  2
LAYER
  5
2
330
0
100
AcDbSymbolTable
 70
     2
  0
LAYER
  5
10
330
2
100
AcDbSymbolTableRecord
100
AcDbLayerTableRecord
  2
0
 70
     0
 62
     7
  6
Continuous
370
    -3
390
F
  0
LAYER
  5
62
330
2
100
AcDbSymbolTableRecord
100
AcDbLayerTableRecord
  2
text2
 70
     0
 62
    16
420
  8388608
  6
Continuous
370
    -3
390
F
  0
ENDTAB
  0
TABLE
  2
STYLE
  5
3
330
0
100
AcDbSymbolTable
 70
     1
  0
STYLE
  5
11
330
3
100
AcDbSymbolTableRecord
100
AcDbTextStyleTableRecord
  2
Standard
 70
     0
 40
0.0
 41
1.0
 50
0.0
 71
     0
 42
0.2
  3
txt
  4

  0
ENDTAB
  0
TABLE
  2
VIEW
  5
6
330
0
100
AcDbSymbolTable
 70
     0
  0
ENDTAB
  0
TABLE
  2
UCS
  5
7
330
0
100
AcDbSymbolTable
 70
     0
  0
ENDTAB
  0
TABLE
  2
APPID
  5
9
330
0
100
AcDbSymbolTable
 70
     1
  0
APPID
  5
12
330
9
100
AcDbSymbolTableRecord
100
AcDbRegAppTableRecord
  2
ACAD
 70
     0
  0
ENDTAB
  0
TABLE
  2
DIMSTYLE
  5
A
330
0
100
AcDbSymbolTable
 70
     1
100
AcDbDimStyleTable
  0
DIMSTYLE
105
27
330
A
100
AcDbSymbolTableRecord
100
AcDbDimStyleTableRecord
  2
Standard
 70
     0
340
11
  0
ENDTAB
  0
TABLE
  2
BLOCK_RECORD
  5
1
330
0
100
AcDbSymbolTable
 70
     4
  0
BLOCK_RECORD
  5
1F
330
1
100
AcDbSymbolTableRecord
100
AcDbBlockTableRecord
  2
*Model_Space
340
22
  0
BLOCK_RECORD
  5
1B
330
1
100
AcDbSymbolTableRecord
100
AcDbBlockTableRecord
  2
*Paper_Space
340
1E
  0
BLOCK_RECORD
  5
23
330
1
100
AcDbSymbolTableRecord
100
AcDbBlockTableRecord
  2
*Paper_Space0
340
26
  0
BLOCK_RECORD
  5
85
330
1
100
AcDbSymbolTableRecord
100
AcDbBlockTableRecord
  2
win_pp10_rfpadN
340
0
102
{BLKREFS
331
5D
331
60
102
}
  0
BLOCK_RECORD
  5
8B
330
1
100
AcDbSymbolTableRecord
100
AcDbBlockTableRecord
  2
gRCQ0018A_win_pp10_dcpadWINsc_win_pp10_dcpadWINsc2
340
0
102
{BLKREFS
331
5E
102
}
  0
BLOCK_RECORD
  5
93
330
1
100
AcDbSymbolTableRecord
100
AcDbBlockTableRecord
  2
gRCQ0018A_win_pp10_dcpadWINsc_win_pp10_dcpadWINsc1
340
0
102
{BLKREFS
331
5F
102
}
  0
ENDTAB
  0
ENDSEC
  0
SECTION
  2
BLOCKS
  0
BLOCK
  5
20
330
1F
100
AcDbEntity
  8
0
100
AcDbBlockBegin
  2
*Model_Space
 70
     0
 10
0.0
 20
0.0
 30
0.0
  3
*Model_Space
  1

  0
ENDBLK
  5
21
330
1F
100
AcDbEntity
  8
0
100
AcDbBlockEnd
  0
BLOCK
  5
1C
330
1B
100
AcDbEntity
 67
     1
  8
0
100
AcDbBlockBegin
  2
*Paper_Space
 70
     0
 10
0.0
 20
0.0
 30
0.0
  3
*Paper_Space
  1

  0
ENDBLK
  5
1D
330
1B
100
AcDbEntity
 67
     1
  8
0
100
AcDbBlockEnd
  0
BLOCK
  5
24
330
23
100
AcDbEntity
  8
0
100
AcDbBlockBegin
  2
*Paper_Space0
 70
     0
 10
0.0
 20
0.0
 30
0.0
  3
*Paper_Space0
  1

  0
ENDBLK
  5
25
330
23
100
AcDbEntity
  8
0
100
AcDbBlockEnd
  0
BLOCK
  5
86
330
85
100
AcDbEntity
  8
0
100
AcDbBlockBegin
  2
win_pp10_rfpadN
 70
     0
 10
0.0
 20
0.0
 30
0.0
  3
win_pp10_rfpadN
  1

  0
LWPOLYLINE
  5
88
330
85
100
AcDbEntity
  8
text2
100
AcDbPolyline
 90
       26
 70
     1
 43
0.0
 10
-19.0
 20
70.0
 10
-19.0
 20
147.4
 10
-18.3
 20
151.8
 10
-15.9
 20
156.5
 10
-12.3
 20
160.1
 10
-7.600000000000001
 20
162.5
 10
-2.5
 20
163.3
 10
2.6
 20
162.5
 10
7.3
 20
160.1
 10
10.9
 20
156.5
 10
13.3
 20
151.8
 10
14.0
 20
147.4
 10
14.0
 20
138.2
 10
36.5
 20
103.0
 10
45.8
 20
103.0
 10
50.2
 20
102.3
 10
54.9
 20
99.9
 10
58.5
 20
96.3
 10
60.9
 20
91.60000000000001
 10
61.7
 20
86.5
 10
60.9
 20
81.4
 10
58.5
 20
76.7
 10
54.9
 20
73.10000000000001
 10
50.2
 20
70.7
 10
45.8
 20
70.0
 10
29.4
 20
70.0
  0
LWPOLYLINE
  5
89
330
85
100
AcDbEntity
  8
text2
100
AcDbPolyline
 90
       26
 70
     1
 43
0.0
 10
29.4
 20
-70.0
 10
45.8
 20
-70.0
 10
50.2
 20
-70.7
 10
54.9
 20
-73.10000000000001
 10
58.5
 20
-76.7
 10
60.9
 20
-81.4
 10
61.7
 20
-86.5
 10
60.9
 20
-91.60000000000001
 10
58.5
 20
-96.3
 10
54.9
 20
-99.9
 10
50.2
 20
-102.3
 10
45.8
 20
-103.0
 10
36.5
 20
-103.0
 10
14.0
 20
-138.2
 10
14.0
 20
-147.4
 10
13.3
 20
-151.8
 10
10.9
 20
-156.5
 10
7.3
 20
-160.1
 10
2.6
 20
-162.5
 10
-2.5
 20
-163.3
 10
-7.600000000000001
 20
-162.5
 10
-12.3
 20
-160.1
 10
-15.9
 20
-156.5
 10
-18.3
 20
-151.8
 10
-19.0
 20
-147.4
 10
-19.0
 20
-70.0
  0
LWPOLYLINE
  5
8A
330
85
100
AcDbEntity
  8
text2
100
AcDbPolyline
 90
        8
 70
     1
 43
0.0
 10
-19.0
 20
-29.0
 10
-19.0
 20
29.0
 10
49.8
 20
29.0
 10
79.8
 20
16.5
 10
89.0
 20
16.5
 10
89.0
 20
-16.5
 10
79.8
 20
-16.5
 10
49.8
 20
-29.0
  0
ENDBLK
  5
87
330
85
100
AcDbEntity
  8
0
100
AcDbBlockEnd
  0
BLOCK
  5
8C
330
8B
100
AcDbEntity
  8
0
100
AcDbBlockBegin
  2
gRCQ0018A_win_pp10_dcpadWINsc_win_pp10_dcpadWINsc2
 70
     0
 10
0.0
 20
0.0
 30
0.0
  3
gRCQ0018A_win_pp10_dcpadWINsc_win_pp10_dcpadWINsc2
  1

  0
LWPOLYLINE
  5
8E
330
8B
100
AcDbEntity
  8
text2
100
AcDbPolyline
 90
        4
 70
     1
 43
0.0
 10
1.0
 20
-47.5
 10
96.0
 20
-47.5
 10
96.0
 20
47.5
 10
1.0
 20
47.5
  0
LWPOLYLINE
  5
8F
330
8B
100
AcDbEntity
  8
text2
100
AcDbPolyline
 90
        4
 70
     1
 43
0.0
 10
1.0
 20
102.5
 10
96.0
 20
102.5
 10
96.0
 20
197.5
 10
1.0
 20
197.5
  0
LWPOLYLINE
  5
90
330
8B
100
AcDbEntity
  8
text2
100
AcDbPolyline
 90
        4
 70
     1
 43
0.0
 10
1.0
 20
252.5
 10
96.0
 20
252.5
 10
96.0
 20
347.5
 10
1.0
 20
347.5
  0
LWPOLYLINE
  5
91
330
8B
100
AcDbEntity
  8
text2
100
AcDbPolyline
 90
        4
 70
     1
 43
0.0
 10
1.0
 20
402.5
 10
96.0
 20
402.5
 10
96.0
 20
497.5
 10
1.0
 20
497.5
  0
LWPOLYLINE
  5
92
330
8B
100
AcDbEntity
  8
text2
100
AcDbPolyline
 90
        4
 70
     1
 43
0.0
 10
1.0
 20
552.5
 10
96.0
 20
552.5
 10
96.0
 20
647.5
 10
1.0
 20
647.5
  0
ENDBLK
  5
8D
330
8B
100
AcDbEntity
  8
0
100
AcDbBlockEnd
  0
BLOCK
  5
94
330
93
100
AcDbEntity
  8
0
100
AcDbBlockBegin
  2
gRCQ0018A_win_pp10_dcpadWINsc_win_pp10_dcpadWINsc1
 70
     0
 10
0.0
 20
0.0
 30
0.0
  3
gRCQ0018A_win_pp10_dcpadWINsc_win_pp10_dcpadWINsc1
  1

  0
LWPOLYLINE
  5
96
330
93
100
AcDbEntity
  8
text2
100
AcDbPolyline
 90
        4
 70
     1
 43
0.0
 10
1.0
 20
-47.5
 10
96.0
 20
-47.5
 10
96.0
 20
47.5
 10
1.0
 20
47.5
  0
LWPOLYLINE
  5
97
330
93
100
AcDbEntity
  8
text2
100
AcDbPolyline
 90
        4
 70
     1
 43
0.0
 10
1.0
 20
102.5
 10
96.0
 20
102.5
 10
96.0
 20
197.5
 10
1.0
 20
197.5
  0
LWPOLYLINE
  5
98
330
93
100
AcDbEntity
  8
text2
100
AcDbPolyline
 90
        4
 70
     1
 43
0.0
 10
1.0
 20
252.5
 10
96.0
 20
252.5
 10
96.0
 20
347.5
 10
1.0
 20
347.5
  0
LWPOLYLINE
  5
99
330
93
100
AcDbEntity
  8
text2
100
AcDbPolyline
 90
        4
 70
     1
 43
0.0
 10
1.0
 20
402.5
 10
96.0
 20
402.5
 10
96.0
 20
497.5
 10
1.0
 20
497.5
  0
LWPOLYLINE
  5
9A
330
93
100
AcDbEntity
  8
text2
100
AcDbPolyline
 90
        4
 70
     1
 43
0.0
 10
1.0
 20
552.5
 10
96.0
 20
552.5
 10
96.0
 20
647.5
 10
1.0
 20
647.5
  0
ENDBLK
  5
95
330
93
100
AcDbEntity
  8
0
100
AcDbBlockEnd
  0
ENDSEC
  0
SECTION
  2
ENTITIES
  0
INSERT
  5
5D
330
1F
100
AcDbEntity
  8
0
100
AcDbBlockReference
  2
win_pp10_rfpadN
 10
85.0
 20
522.0
 30
0.0
  0
INSERT
  5
5E
330
1F
100
AcDbEntity
  8
0
100
AcDbBlockReference
  2
gRCQ0018A_win_pp10_dcpadWINsc_win_pp10_dcpadWINsc2
 10
1340.4
 20
1534.9
 30
0.0
 50
-90.0
  0
INSERT
  5
5F
330
1F
100
AcDbEntity
  8
0
100
AcDbBlockReference
  2
gRCQ0018A_win_pp10_dcpadWINsc_win_pp10_dcpadWINsc1
 10
2338.0
 20
222.0
 30
0.0
  0
INSERT
  5
60
330
1F
100
AcDbEntity
  8
0
100
AcDbBlockReference
  2
win_pp10_rfpadN
 10
2134.2
 20
85.0
 30
0.0
 50
90.0
  0
LWPOLYLINE
  5
61
330
1F
100
AcDbEntity
  8
text2
100
AcDbPolyline
 90
        9
 70
     1
 43
0.0
 10
72.145
 20
280.0
 10
72.145
 20
330.0
 10
100.715
 20
330.0
 10
107.855
 20
322.855
 10
107.855
 20
308.57
 10
100.715
 20
301.43
 10
79.285
 20
301.43
 10
79.285
 20
280.0
 10
72.145
 20
280.0
  0
LWPOLYLINE
  5
63
330
1F
100
AcDbEntity
  8
text2
100
AcDbPolyline
 90
       11
 70
     1
 43
0.0
 10
128.571
 20
649.287
 10
132.858
 20
649.287
 10
132.858
 20
645.0
 10
120.0
 20
645.0
 10
120.0
 20
649.287
 10
124.287
 20
649.287
 10
124.287
 20
670.713
 10
120.0
 20
670.713
 10
124.287
 20
675.0
 10
128.571
 20
675.0
 10
128.571
 20
649.287
  0
LWPOLYLINE
  5
64
330
1F
100
AcDbEntity
  8
text2
100
AcDbPolyline
 90
       12
 70
     1
 43
0.0
 10
150.715
 20
305.0
 10
157.855
 20
305.0
 10
157.855
 20
297.855
 10
150.715
 20
297.855
 10
150.715
 20
280.0
 10
143.57
 20
280.0
 10
143.57
 20
297.855
 10
122.145
 20
297.855
 10
122.145
 20
305.0
 10
143.57
 20
330.0
 10
150.715
 20
330.0
 10
150.715
 20
305.0
  0
LWPOLYLINE
  5
65
330
1F
100
AcDbEntity
  8
text2
100
AcDbPolyline
 90
       51
 70
     1
 43
0.0
 10
918.828
 20
121.9
 10
917.028
 20
122.1
 10
913.828
 20
122.5
 10
907.428
 20
123.7
 10
900.2280000000001
 20
125.3
 10
893.428
 20
127.7
 10
887.028
 20
130.5
 10
881.428
 20
133.7
 10
876.2280000000001
 20
137.3
 10
871.428
 20
140.9
 10
867.828
 20
144.9
 10
864.628
 20
149.3
 10
862.2280000000001
 20
153.3
 10
861.028
 20
158.1
 10
860.628
 20
162.5
 10
861.028
 20
166.1
 10
861.828
 20
170.1
 10
862.628
 20
172.1
 10
863.428
 20
173.7
 10
867.028
 20
178.5
 10
868.628
 20
179.7
 10
870.628
 20
180.9
 10
872.2280000000001
 20
182.1
 10
877.028
 20
184.5
 10
873.828
 20
183.3
 10
868.2280000000001
 20
180.9
 10
865.428
 20
179.3
 10
863.028
 20
177.3
 10
860.628
 20
175.7
 10
856.628
 20
171.7
 10
855.028
 20
169.7
 10
853.828
 20
167.3
 10
853.028
 20
165.3
 10
852.2280000000001
 20
162.9
 10
851.828
 20
158.9
 10
852.2280000000001
 20
154.5
 10
853.828
 20
150.1
 10
855.828
 20
145.7
 10
859.028
 20
141.3
 10
862.628
 20
137.3
 10
867.428
 20
133.7
 10
872.628
 20
130.1
 10
878.2280000000001
 20
126.9
 10
884.628
 20
124.5
 10
891.428
 20
122.1
 10
898.628
 20
120.1
 10
905.028
 20
118.9
 10
909.428
 20
118.5
 10
913.428
 20
118.1
 10
918.828
 20
118.1
 10
918.828
 20
121.9
  0
LWPOLYLINE
  5
66
330
1F
100
AcDbEntity
  8
text2
100
AcDbPolyline
 90
       95
 70
     1
 43
0.0
 10
918.828
 20
183.1
 10
916.628
 20
185.3
 10
915.428
 20
186.1
 10
913.828
 20
187.3
 10
911.828
 20
188.1
 10
910.2280000000001
 20
188.9
 10
908.628
 20
189.3
 10
904.628
 20
190.1
 10
896.628
 20
190.1
 10
892.628
 20
189.3
 10
890.2280000000001
 20
188.5
 10
890.628
 20
188.5
 10
892.2280000000001
 20
188.9
 10
894.2280000000001
 20
188.9
 10
895.828
 20
189.3
 10
897.428
 20
189.3
 10
899.028
 20
188.9
 10
900.628
 20
188.9
 10
902.2280000000001
 20
188.5
 10
903.428
 20
188.1
 10
905.028
 20
187.3
 10
906.2280000000001
 20
186.9
 10
907.828
 20
186.1
 10
910.2280000000001
 20
184.5
 10
913.828
 20
180.9
 10
915.428
 20
178.5
 10
916.2280000000001
 20
176.9
 10
917.028
 20
175.7
 10
917.828
 20
174.1
 10
917.828
 20
172.9
 10
910.628
 20
172.1
 10
907.428
 20
171.3
 10
903.828
 20
170.5
 10
900.628
 20
169.7
 10
897.428
 20
168.5
 10
894.2280000000001
 20
167.7
 10
891.428
 20
166.5
 10
888.628
 20
164.9
 10
885.828
 20
163.7
 10
883.428
 20
162.1
 10
885.428
 20
162.9
 10
887.828
 20
164.1
 10
890.2280000000001
 20
164.9
 10
892.2280000000001
 20
165.7
 10
894.628
 20
166.1
 10
897.428
 20
166.9
 10
899.828
 20
167.3
 10
905.428
 20
168.1
 10
908.2280000000001
 20
168.1
 10
911.028
 20
168.5
 10
916.628
 20
168.9
 10
918.628
 20
168.9
 10
918.2280000000001
 20
168.1
 10
917.028
 20
162.9
 10
916.628
 20
157.7
 10
916.628
 20
152.1
 10
917.028
 20
148.9
 10
914.628
 20
150.1
 10
912.628
 20
150.5
 10
911.028
 20
151.3
 10
909.028
 20
151.3
 10
907.428
 20
151.7
 10
905.428
 20
151.7
 10
903.428
 20
151.3
 10
901.828
 20
151.3
 10
899.828
 20
150.5
 10
898.2280000000001
 20
150.1
 10
896.2280000000001
 20
149.3
 10
894.628
 20
148.5
 10
892.628
 20
147.3
 10
891.028
 20
146.5
 10
889.028
 20
145.3
 10
886.2280000000001
 20
142.5
 10
887.428
 20
143.3
 10
889.028
 20
144.5
 10
890.628
 20
145.3
 10
891.828
 20
146.1
 10
895.028
 20
146.9
 10
896.2280000000001
 20
147.3
 10
897.828
 20
147.7
 10
899.428
 20
147.7
 10
901.028
 20
148.1
 10
902.628
 20
147.7
 10
903.828
 20
147.7
 10
905.428
 20
147.3
 10
907.028
 20
147.3
 10
908.628
 20
146.9
 10
909.828
 20
146.5
 10
912.2280000000001
 20
144.9
 10
913.428
 20
144.5
 10
914.628
 20
143.3
 10
917.028
 20
141.7
 10
917.828
 20
140.5
 10
918.828
 20
139.5
 10
918.828
 20
183.1
  0
LWPOLYLINE
  5
67
330
1F
100
AcDbEntity
  8
text2
100
AcDbPolyline
 90
      142
 70
     1
 43
0.0
 10
985.828
 20
178.1
 10
983.828
 20
178.5
 10
972.628
 20
178.5
 10
967.828
 20
177.7
 10
965.028
 20
176.9
 10
962.628
 20
176.5
 10
960.2280000000001
 20
175.7
 10
957.828
 20
174.5
 10
955.428
 20
173.7
 10
953.428
 20
172.5
 10
950.628
 20
170.9
 10
948.2280000000001
 20
169.3
 10
946.628
 20
169.7
 10
941.428
 20
171.3
 10
935.428
 20
172.5
 10
929.828
 20
172.9
 10
930.2280000000001
 20
174.9
 10
934.2280000000001
 20
183.7
 10
936.628
 20
186.9
 10
940.2280000000001
 20
190.5
 10
941.828
 20
191.7
 10
943.028
 20
192.5
 10
944.628
 20
193.7
 10
946.2280000000001
 20
194.5
 10
950.2280000000001
 20
196.1
 10
952.2280000000001
 20
196.5
 10
954.2280000000001
 20
197.3
 10
956.2280000000001
 20
197.3
 10
958.628
 20
197.7
 10
961.028
 20
197.7
 10
958.2280000000001
 20
198.1
 10
950.628
 20
198.1
 10
948.2280000000001
 20
197.7
 10
941.028
 20
195.3
 10
936.2280000000001
 20
192.9
 10
933.828
 20
191.3
 10
931.828
 20
189.7
 10
928.2280000000001
 20
186.5
 10
925.028
 20
182.1
 10
922.628
 20
178.5
 10
921.828
 20
179.3
 10
921.028
 20
180.9
 10
918.828
 20
183.1
 10
918.828
 20
139.5
 10
919.028
 20
139.3
 10
919.828
 20
138.1
 10
920.2280000000001
 20
137.7
 10
920.628
 20
136.5
 10
923.028
 20
131.7
 10
925.828
 20
128.1
 10
927.428
 20
125.7
 10
931.428
 20
121.7
 10
932.2280000000001
 20
121.3
 10
923.828
 20
121.3
 10
920.628
 20
121.7
 10
918.828
 20
121.9
 10
918.828
 20
118.1
 10
921.428
 20
118.1
 10
933.428
 20
119.3
 10
934.2280000000001
 20
119.7
 10
935.828
 20
118.5
 10
937.828
 20
116.9
 10
940.2280000000001
 20
116.1
 10
942.628
 20
114.9
 10
947.428
 20
113.3
 10
950.2280000000001
 20
112.9
 10
952.628
 20
112.9
 10
948.628
 20
113.7
 10
944.628
 20
115.3
 10
943.028
 20
116.1
 10
941.428
 20
117.3
 10
939.028
 20
119.7
 10
938.628
 20
120.5
 10
940.628
 20
120.9
 10
943.828
 20
122.1
 10
947.028
 20
122.9
 10
949.828
 20
124.1
 10
947.428
 20
123.3
 10
944.628
 20
122.5
 10
939.028
 20
121.7
 10
938.2280000000001
 20
121.7
 10
937.828
 20
122.1
 10
936.628
 20
125.3
 10
936.2280000000001
 20
128.5
 10
935.828
 20
132.1
 10
936.2280000000001
 20
136.1
 10
937.028
 20
140.1
 10
938.2280000000001
 20
144.1
 10
939.828
 20
148.1
 10
941.828
 20
152.1
 10
944.2280000000001
 20
156.1
 10
946.628
 20
159.7
 10
948.628
 20
162.1
 10
949.428
 20
161.3
 10
953.428
 20
158.9
 10
956.628
 20
156.1
 10
959.428
 20
152.9
 10
961.428
 20
149.7
 10
962.628
 20
146.1
 10
963.028
 20
143.3
 10
963.028
 20
141.7
 10
962.628
 20
139.7
 10
962.628
 20
138.1
 10
962.2280000000001
 20
136.9
 10
960.628
 20
133.7
 10
959.828
 20
132.5
 10
959.028
 20
130.9
 10
957.828
 20
129.7
 10
956.2280000000001
 20
128.5
 10
954.628
 20
126.9
 10
953.028
 20
125.7
 10
955.428
 20
127.3
 10
957.428
 20
128.5
 10
959.428
 20
130.5
 10
961.428
 20
132.1
 10
963.028
 20
133.7
 10
966.2280000000001
 20
137.7
 10
967.428
 20
139.3
 10
969.028
 20
143.3
 10
969.428
 20
145.3
 10
969.428
 20
147.3
 10
969.028
 20
150.5
 10
967.828
 20
154.1
 10
965.828
 20
157.3
 10
963.428
 20
160.5
 10
959.828
 20
163.3
 10
956.2280000000001
 20
165.7
 10
953.828
 20
166.9
 10
957.028
 20
169.3
 10
959.428
 20
170.9
 10
961.428
 20
172.1
 10
963.428
 20
172.9
 10
965.428
 20
174.1
 10
967.028
 20
174.9
 10
969.028
 20
175.3
 10
971.028
 20
176.1
 10
973.028
 20
176.5
 10
975.028
 20
177.3
 10
976.628
 20
177.7
 10
978.628
 20
177.7
 10
980.628
 20
178.1
 10
985.828
 20
178.1
  0
LWPOLYLINE
  5
68
330
1F
100
AcDbEntity
  8
text2
100
AcDbPolyline
 90
       11
 70
     1
 43
0.0
 10
955.715
 20
230.0
 10
955.715
 20
251.43
 10
934.285
 20
251.43
 10
934.285
 20
230.0
 10
927.145
 20
230.0
 10
927.145
 20
272.855
 10
934.285
 20
280.0
 10
955.715
 20
280.0
 10
962.855
 20
272.855
 10
962.855
 20
230.0
 10
955.715
 20
230.0
  0
LWPOLYLINE
  5
69
330
1F
100
AcDbEntity
  8
text2
100
AcDbPolyline
 90
       11
 70
     1
 43
0.0
 10
978.572
 20
290.5
 10
978.572
 20
307.644
 10
961.428
 20
307.644
 10
961.428
 20
290.5
 10
955.716
 20
290.5
 10
955.716
 20
324.784
 10
961.428
 20
330.5
 10
978.572
 20
330.5
 10
984.284
 20
324.784
 10
984.284
 20
290.5
 10
978.572
 20
290.5
  0
LWPOLYLINE
  5
6A
330
1F
100
AcDbEntity
  8
text2
100
AcDbPolyline
 90
       11
 70
     1
 43
0.0
 10
995.716
 20
290.5
 10
995.716
 20
330.5
 10
1004.284
 20
330.5
 10
1018.572
 20
299.072
 10
1018.572
 20
330.5
 10
1024.284
 20
330.5
 10
1024.284
 20
290.5
 10
1015.716
 20
290.5
 10
1001.428
 20
321.928
 10
1001.428
 20
290.5
 10
995.716
 20
290.5
  0
LWPOLYLINE
  5
6B
330
1F
100
AcDbEntity
  8
text2
100
AcDbPolyline
 90
       74
 70
     1
 43
0.0
 10
1020.228
 20
153.3
 10
1020.628
 20
150.1
 10
1020.628
 20
144.5
 10
1018.628
 20
138.1
 10
1015.428
 20
132.1
 10
1011.028
 20
126.5
 10
1005.428
 20
121.3
 10
998.628
 20
116.1
 10
990.628
 20
112.1
 10
981.828
 20
108.1
 10
972.2280000000001
 20
104.9
 10
961.828
 20
102.5
 10
951.028
 20
100.9
 10
939.428
 20
99.7
 10
929.428
 20
99.7
 10
923.028
 20
100.1
 10
916.628
 20
100.5
 10
910.2280000000001
 20
100.9
 10
904.2280000000001
 20
102.1
 10
898.2280000000001
 20
103.3
 10
892.2280000000001
 20
104.5
 10
886.628
 20
106.1
 10
881.428
 20
107.7
 10
876.2280000000001
 20
109.7
 10
871.428
 20
111.7
 10
866.628
 20
114.1
 10
862.628
 20
116.1
 10
866.628
 20
114.5
 10
870.2280000000001
 20
112.9
 10
874.2280000000001
 20
111.3
 10
878.628
 20
109.7
 10
882.628
 20
108.5
 10
887.028
 20
107.7
 10
891.828
 20
106.5
 10
896.2280000000001
 20
105.7
 10
901.028
 20
105.3
 10
906.2280000000001
 20
104.9
 10
911.428
 20
104.5
 10
926.628
 20
104.5
 10
938.2280000000001
 20
105.7
 10
949.028
 20
107.3
 10
959.428
 20
109.7
 10
969.028
 20
112.9
 10
977.828
 20
116.9
 10
985.828
 20
120.9
 10
992.628
 20
125.7
 10
998.2280000000001
 20
131.3
 10
1002.628
 20
136.9
 10
1005.828
 20
142.9
 10
1007.828
 20
149.3
 10
1008.228
 20
154.5
 10
1007.828
 20
157.7
 10
1007.428
 20
160.5
 10
1007.028
 20
163.3
 10
1006.228
 20
166.1
 10
1005.028
 20
168.9
 10
1003.428
 20
171.7
 10
1001.828
 20
174.1
 10
999.828
 20
176.5
 10
997.828
 20
178.9
 10
995.028
 20
181.3
 10
992.2280000000001
 20
183.3
 10
989.028
 20
185.7
 10
993.028
 20
183.3
 10
997.428
 20
180.9
 10
1001.028
 20
178.5
 10
1004.628
 20
175.7
 10
1008.228
 20
172.9
 10
1011.028
 20
169.7
 10
1013.828
 20
166.5
 10
1016.228
 20
163.7
 10
1017.828
 20
160.1
 10
1019.428
 20
156.9
 10
1020.228
 20
153.3
  0
LWPOLYLINE
  5
6C
330
1F
100
AcDbEntity
  8
text2
100
AcDbPolyline
 90
       11
 70
     1
 43
0.0
 10
1035.716
 20
290.5
 10
1035.716
 20
299.072
 10
1058.572
 20
324.784
 10
1035.716
 20
324.784
 10
1035.716
 20
330.5
 10
1064.284
 20
330.5
 10
1064.284
 20
321.928
 10
1041.428
 20
296.216
 10
1064.284
 20
296.216
 10
1064.284
 20
290.5
 10
1035.716
 20
290.5
  0
LWPOLYLINE
  5
6D
330
1F
100
AcDbEntity
  8
text2
100
AcDbPolyline
 90
       17
 70
     1
 43
0.0
 10
1050.715
 20
100.715
 10
1050.715
 20
107.855
 10
1068.57
 20
107.855
 10
1072.145
 20
111.429
 10
1072.145
 20
118.571
 10
1068.57
 20
115.0
 10
1057.855
 20
115.0
 10
1050.715
 20
122.145
 10
1050.715
 20
136.43
 10
1057.855
 20
143.57
 10
1068.57
 20
143.57
 10
1072.145
 20
140.0
 10
1072.145
 20
143.57
 10
1079.285
 20
143.57
 10
1079.285
 20
107.855
 10
1072.145
 20
100.715
 10
1050.715
 20
100.715
  0
LWPOLYLINE
  5
6E
330
1F
100
AcDbEntity
  8
text2
100
AcDbPolyline
 90
        9
 70
     1
 43
0.0
 10
1078.572
 20
296.216
 10
1078.572
 20
324.784
 10
1084.284
 20
330.5
 10
1095.716
 20
330.5
 10
1101.428
 20
324.784
 10
1101.428
 20
296.216
 10
1095.716
 20
290.5
 10
1084.284
 20
290.5
 10
1078.572
 20
296.216
  0
LWPOLYLINE
  5
6F
330
1F
100
AcDbEntity
  8
text2
100
AcDbPolyline
 90
       13
 70
     1
 43
0.0
 10
1097.145
 20
115.0
 10
1097.145
 20
165.0
 10
1125.715
 20
165.0
 10
1132.855
 20
157.855
 10
1132.855
 20
143.57
 10
1125.715
 20
136.43
 10
1115.0
 20
136.43
 10
1132.855
 20
118.571
 10
1132.855
 20
115.0
 10
1125.715
 20
115.0
 10
1104.285
 20
136.43
 10
1104.285
 20
115.0
 10
1097.145
 20
115.0
  0
LWPOLYLINE
  5
70
330
1F
100
AcDbEntity
  8
text2
100
AcDbPolyline
 90
       15
 70
     1
 43
0.0
 10
1115.716
 20
296.216
 10
1115.716
 20
304.784
 10
1121.428
 20
310.5
 10
1115.716
 20
316.216
 10
1115.716
 20
324.784
 10
1121.428
 20
330.5
 10
1138.572
 20
330.5
 10
1144.284
 20
324.784
 10
1144.284
 20
316.216
 10
1138.572
 20
310.5
 10
1144.284
 20
304.784
 10
1144.284
 20
296.216
 10
1138.572
 20
290.5
 10
1121.428
 20
290.5
 10
1115.716
 20
296.216
  0
LWPOLYLINE
  5
71
330
1F
100
AcDbEntity
  8
text2
100
AcDbPolyline
 90
       21
 70
     1
 43
0.0
 10
1147.145
 20
122.145
 10
1147.145
 20
157.855
 10
1154.285
 20
165.0
 10
1175.715
 20
165.0
 10
1182.855
 20
157.855
 10
1182.855
 20
150.715
 10
1175.715
 20
150.715
 10
1175.715
 20
154.285
 10
1172.145
 20
157.855
 10
1157.855
 20
157.855
 10
1154.285
 20
154.285
 10
1154.285
 20
125.715
 10
1157.855
 20
122.145
 10
1172.145
 20
122.145
 10
1175.715
 20
125.715
 10
1175.715
 20
129.285
 10
1182.855
 20
129.285
 10
1182.855
 20
122.145
 10
1175.715
 20
115.0
 10
1154.285
 20
115.0
 10
1147.145
 20
122.145
  0
LWPOLYLINE
  5
72
330
1F
100
AcDbEntity
  8
text2
100
AcDbPolyline
 90
        9
 70
     1
 43
0.0
 10
1158.572
 20
296.216
 10
1158.572
 20
324.784
 10
1164.284
 20
330.5
 10
1175.716
 20
330.5
 10
1181.428
 20
324.784
 10
1181.428
 20
296.216
 10
1175.716
 20
290.5
 10
1164.284
 20
290.5
 10
1158.572
 20
296.216
  0
LWPOLYLINE
  5
73
330
1F
100
AcDbEntity
  8
text2
100
AcDbPolyline
 90
        9
 70
     1
 43
0.0
 10
1177.575
 20
1455.655
 10
1177.575
 20
1505.655
 10
1206.145
 20
1505.655
 10
1213.285
 20
1498.51
 10
1213.285
 20
1484.225
 10
1206.145
 20
1477.085
 10
1184.715
 20
1477.085
 10
1184.715
 20
1455.655
 10
1177.575
 20
1455.655
  0
LWPOLYLINE
  5
74
330
1F
100
AcDbEntity
  8
text2
100
AcDbPolyline
 90
       11
 70
     1
 43
0.0
 10
1218.572
 20
290.5
 10
1218.572
 20
307.644
 10
1201.428
 20
307.644
 10
1201.428
 20
290.5
 10
1195.716
 20
290.5
 10
1195.716
 20
324.784
 10
1201.428
 20
330.5
 10
1218.572
 20
330.5
 10
1224.284
 20
324.784
 10
1224.284
 20
290.5
 10
1218.572
 20
290.5
  0
LWPOLYLINE
  5
75
330
1F
100
AcDbEntity
  8
text2
100
AcDbPolyline
 90
       11
 70
     1
 43
0.0
 10
1232.855
 20
122.145
 10
1236.43
 20
118.571
 10
1229.285
 20
111.429
 10
1225.715
 20
115.0
 10
1204.285
 20
115.0
 10
1197.145
 20
122.145
 10
1197.145
 20
157.855
 10
1204.285
 20
165.0
 10
1225.715
 20
165.0
 10
1232.855
 20
157.855
 10
1232.855
 20
122.145
  0
LWPOLYLINE
  5
76
330
1F
100
AcDbEntity
  8
text2
100
AcDbPolyline
 90
        9
 70
     1
 43
0.0
 10
1250.715
 20
122.145
 10
1250.715
 20
157.855
 10
1257.855
 20
165.0
 10
1272.145
 20
165.0
 10
1279.285
 20
157.855
 10
1279.285
 20
122.145
 10
1272.145
 20
115.0
 10
1257.855
 20
115.0
 10
1250.715
 20
122.145
  0
LWPOLYLINE
  5
77
330
1F
100
AcDbEntity
  8
text2
100
AcDbPolyline
 90
       11
 70
     1
 43
0.0
 10
1249.0
 20
1462.8
 10
1256.145
 20
1462.8
 10
1256.145
 20
1455.655
 10
1234.715
 20
1455.655
 10
1234.715
 20
1462.8
 10
1241.86
 20
1462.8
 10
1241.86
 20
1498.51
 10
1234.715
 20
1498.51
 10
1241.86
 20
1505.655
 10
1249.0
 20
1505.655
 10
1249.0
 20
1462.8
  0
LWPOLYLINE
  5
78
330
1F
100
AcDbEntity
  8
text2
100
AcDbPolyline
 90
       11
 70
     1
 43
0.0
 10
1252.856
 20
296.216
 10
1258.572
 20
296.216
 10
1258.572
 20
290.5
 10
1241.428
 20
290.5
 10
1241.428
 20
296.216
 10
1247.144
 20
296.216
 10
1247.144
 20
324.784
 10
1241.428
 20
324.784
 10
1247.144
 20
330.5
 10
1252.856
 20
330.5
 10
1252.856
 20
296.216
  0
LWPOLYLINE
  5
79
330
1F
100
AcDbEntity
  8
text2
100
AcDbPolyline
 90
        9
 70
     1
 43
0.0
 10
1300.715
 20
122.145
 10
1300.715
 20
157.855
 10
1307.855
 20
165.0
 10
1322.145
 20
165.0
 10
1329.285
 20
157.855
 10
1329.285
 20
122.145
 10
1322.145
 20
115.0
 10
1307.855
 20
115.0
 10
1300.715
 20
122.145
  0
LWPOLYLINE
  5
7A
330
1F
100
AcDbEntity
  8
text2
100
AcDbPolyline
 90
       12
 70
     1
 43
0.0
 10
1298.572
 20
310.5
 10
1304.284
 20
310.5
 10
1304.284
 20
304.784
 10
1298.572
 20
304.784
 10
1298.572
 20
290.5
 10
1292.856
 20
290.5
 10
1292.856
 20
304.784
 10
1275.716
 20
304.784
 10
1275.716
 20
310.5
 10
1292.856
 20
330.5
 10
1298.572
 20
330.5
 10
1298.572
 20
310.5
  0
LWPOLYLINE
  5
7B
330
1F
100
AcDbEntity
  8
text2
100
AcDbPolyline
 90
       11
 70
     1
 43
0.0
 10
1368.57
 20
122.145
 10
1375.715
 20
122.145
 10
1375.715
 20
115.0
 10
1354.285
 20
115.0
 10
1354.285
 20
122.145
 10
1361.43
 20
122.145
 10
1361.43
 20
157.855
 10
1354.285
 20
157.855
 10
1361.43
 20
165.0
 10
1368.57
 20
165.0
 10
1368.57
 20
122.145
  0
LWPOLYLINE
  5
7C
330
1F
100
AcDbEntity
  8
text2
100
AcDbPolyline
 90
       15
 70
     1
 43
0.0
 10
1397.145
 20
122.145
 10
1397.145
 20
132.855
 10
1404.285
 20
140.0
 10
1397.145
 20
147.145
 10
1397.145
 20
157.855
 10
1404.285
 20
165.0
 10
1425.715
 20
165.0
 10
1432.855
 20
157.855
 10
1432.855
 20
147.145
 10
1425.715
 20
140.0
 10
1432.855
 20
132.855
 10
1432.855
 20
122.145
 10
1425.715
 20
115.0
 10
1404.285
 20
115.0
 10
1397.145
 20
122.145
  0
LWPOLYLINE
  5
7D
330
1F
100
AcDbEntity
  8
text2
100
AcDbPolyline
 90
        9
 70
     1
 43
0.0
 10
1848.145
 20
66.8
 10
1848.145
 20
116.8
 10
1876.715
 20
116.8
 10
1883.855
 20
109.655
 10
1883.855
 20
95.37
 10
1876.715
 20
88.23
 10
1855.285
 20
88.23
 10
1855.285
 20
66.8
 10
1848.145
 20
66.8
  0
LWPOLYLINE
  5
7E
330
1F
100
AcDbEntity
  8
text2
100
AcDbPolyline
 90
       26
 70
     1
 43
0.0
 10
1926.715
 20
116.8
 10
1933.855
 20
109.655
 10
1933.855
 20
98.94500000000001
 10
1926.715
 20
91.8
 10
1933.855
 20
84.655
 10
1933.855
 20
73.94500000000001
 10
1926.715
 20
66.8
 10
1905.285
 20
66.8
 10
1898.145
 20
73.94500000000001
 10
1905.285
 20
77.515
 10
1908.855
 20
73.94500000000001
 10
1923.145
 20
73.94500000000001
 10
1926.715
 20
77.515
 10
1926.715
 20
81.08500000000001
 10
1919.57
 20
88.23
 10
1912.43
 20
88.23
 10
1912.43
 20
95.37
 10
1919.57
 20
95.37
 10
1926.715
 20
102.515
 10
1926.715
 20
106.085
 10
1923.145
 20
109.655
 10
1908.855
 20
109.655
 10
1905.285
 20
106.085
 10
1898.145
 20
109.655
 10
1905.285
 20
116.8
 10
1926.715
 20
116.8
  0
LWPOLYLINE
  5
7F
330
1F
100
AcDbEntity
  8
text2
100
AcDbPolyline
 90
       11
 70
     1
 43
0.0
 10
1953.142
 20
74.087
 10
1957.429
 20
74.087
 10
1957.429
 20
69.8
 10
1944.571
 20
69.8
 10
1944.571
 20
74.087
 10
1948.858
 20
74.087
 10
1948.858
 20
95.513
 10
1944.571
 20
95.513
 10
1948.858
 20
99.8
 10
1953.142
 20
99.8
 10
1953.142
 20
74.087
  0
LWPOLYLINE
  5
80
330
1F
100
AcDbEntity
  8
text2
100
AcDbPolyline
 90
       11
 70
     1
 43
0.0
 10
2035.572
 20
1452.942
 10
2039.859
 20
1452.942
 10
2039.859
 20
1448.655
 10
2027.001
 20
1448.655
 10
2027.001
 20
1452.942
 10
2031.288
 20
1452.942
 10
2031.288
 20
1474.368
 10
2027.001
 20
1474.368
 10
2031.288
 20
1478.655
 10
2035.572
 20
1478.655
 10
2035.572
 20
1452.942
  0
LWPOLYLINE
  5
81
330
1F
100
AcDbEntity
  8
text2
100
AcDbPolyline
 90
        9
 70
     1
 43
0.0
 10
2333.861
 20
938.8000000000001
 10
2333.861
 20
988.8000000000001
 10
2362.431
 20
988.8000000000001
 10
2369.571
 20
981.655
 10
2369.571
 20
967.37
 10
2362.431
 20
960.23
 10
2341.001
 20
960.23
 10
2341.001
 20
938.8000000000001
 10
2333.861
 20
938.8000000000001
  0
LWPOLYLINE
  5
82
330
1F
100
AcDbEntity
  8
text2
100
AcDbPolyline
 90
       16
 70
     1
 43
0.0
 10
2383.861
 20
938.8000000000001
 10
2383.861
 20
949.515
 10
2412.431
 20
970.945
 10
2412.431
 20
978.085
 10
2408.861
 20
981.655
 10
2394.571
 20
981.655
 10
2391.001
 20
978.085
 10
2383.861
 20
981.655
 10
2391.001
 20
988.8000000000001
 10
2412.431
 20
988.8000000000001
 10
2419.571
 20
981.655
 10
2419.571
 20
967.37
 10
2391.001
 20
945.945
 10
2419.571
 20
945.945
 10
2419.571
 20
938.8000000000001
 10
2383.861
 20
938.8000000000001
  0
LWPOLYLINE
  5
83
330
1F
100
AcDbEntity
  8
text2
100
AcDbPolyline
 90
       11
 70
     1
 43
0.0
 10
2413.858
 20
123.087
 10
2418.145
 20
123.087
 10
2418.145
 20
118.8
 10
2405.287
 20
118.8
 10
2405.287
 20
123.087
 10
2409.574
 20
123.087
 10
2409.574
 20
144.513
 10
2405.287
 20
144.513
 10
2409.574
 20
148.8
 10
2413.858
 20
148.8
 10
2413.858
 20
123.087
  0
LWPOLYLINE
  5
84
330
1F
100
AcDbEntity
  8
text2
100
AcDbPolyline
 90
        4
 70
     1
 43
0.0
 10
0.0
 20
0.0
 10
0.0
 20
1600.0
 10
2500.0
 20
1600.0
 10
2500.0
 20
0.0
  0
ENDSEC
  0
SECTION
  2
OBJECTS
  0
DICTIONARY
  5
C
330
0
100
AcDbDictionary
281
     1
  3
ACAD_GROUP
350
D
  3
ACAD_LAYOUT
350
1A
  3
ACAD_MLEADERSTYLE
350
9C
  3
ACAD_MLINESTYLE
350
17
  3
ACAD_PLOTSETTINGS
350
19
  3
ACAD_PLOTSTYLENAME
350
E
  3
ACAD_SCALELIST
350
3B
  3
ACAD_TABLESTYLE
350
9B
  3
ACAD_VISUALSTYLE
350
2A
  0
DICTIONARY
  5
D
102
{ACAD_REACTORS
330
C
102
}
330
C
100
AcDbDictionary
281
     1
  0
DICTIONARY
  5
1A
102
{ACAD_REACTORS
330
C
102
}
330
C
100
AcDbDictionary
281
     1
  3
Layout1
350
1E
  3
Layout2
350
26
  3
Model
350
22
  0
DICTIONARY
  5
9C
102
{ACAD_REACTORS
330
C
102
}
330
C
100
AcDbDictionary
281
     1
  0
DICTIONARY
  5
17
102
{ACAD_REACTORS
330
C
102
}
330
C
100
AcDbDictionary
281
     1
  3
Standard
350
18
  0
DICTIONARY
  5
19
102
{ACAD_REACTORS
330
C
102
}
330
C
100
AcDbDictionary
281
     1
  0
ACDBDICTIONARYWDFLT
  5
E
102
{ACAD_REACTORS
330
C
102
}
330
C
100
AcDbDictionary
281
     1
  3
Normal
350
F
100
AcDbDictionaryWithDefault
340
F
  0
DICTIONARY
  5
3B
102
{ACAD_REACTORS
330
C
102
}
330
C
100
AcDbDictionary
281
     1
  3
A0
350
3C
  3
A1
350
3D
  3
A2
350
3E
  3
A3
350
3F
  3
A4
350
40
  3
A5
350
41
  3
A6
350
42
  3
A7
350
43
  3
A8
350
44
  3
A9
350
45
  3
B0
350
46
  3
B1
350
47
  3
B2
350
48
  3
B3
350
49
  3
B4
350
4A
  3
B5
350
4B
  3
B6
350
4C
  3
B7
350
4D
  3
B8
350
4E
  3
B9
350
4F
  3
C0
350
50
  3
C1
350
51
  3
C2
350
52
  3
C3
350
53
  3
C4
350
54
  3
C5
350
55
  3
C6
350
56
  3
C7
350
57
  3
C8
350
58
  3
C9
350
59
  3
D0
350
5A
  3
D1
350
5B
  3
D2
350
5C
  0
DICTIONARY
  5
9B
102
{ACAD_REACTORS
330
C
102
}
330
C
100
AcDbDictionary
281
     1
  0
DICTIONARY
  5
2A
102
{ACAD_REACTORS
330
C
102
}
330
C
100
AcDbDictionary
281
     1
  3
2dWireframe
350
2F
  3
3D Hidden
350
31
  3
3dWireframe
350
30
  3
Basic
350
32
  3
Brighten
350
36
  3
ColorChange
350
3A
  3
Conceptual
350
34
  3
Dim
350
35
  3
Facepattern
350
39
  3
Flat
350
2B
  3
FlatWithEdges
350
2C
  3
Gouraud
350
2D
  3
GouraudWithEdges
350
2E
  3
Linepattern
350
38
  3
Realistic
350
33
  3
Thicken
350
37
  0
LAYOUT
  5
1E
102
{ACAD_REACTORS
330
1A
102
}
330
1A
100
AcDbPlotSettings
  1

  2
none_device
  4

  6

 40
0.0
 41
0.0
 42
0.0
 43
0.0
 44
0.0
 45
0.0
 46
0.0
 47
0.0
 48
0.0
 49
0.0
140
0.0
141
0.0
142
1.0
143
1.0
 70
   688
 72
     0
 73
     0
 74
     5
  7

 75
    16
 76
     0
 77
     2
 78
   300
147
1.0
148
0.0
149
0.0
100
AcDbLayout
  1
Layout1
 70
     1
 71
     1
 10
0.0
 20
0.0
 11
12.0
 21
9.0
 12
0.0
 22
0.0
 32
0.0
 14
1.000000000000000E+20
 24
1.000000000000000E+20
 34
1.000000000000000E+20
 15
-1.000000000000000E+20
 25
-1.000000000000000E+20
 35
-1.000000000000000E+20
146
0.0
 13
0.0
 23
0.0
 33
0.0
 16
1.0
 26
0.0
 36
0.0
 17
0.0
 27
1.0
 37
0.0
 76
     0
330
1B
  0
LAYOUT
  5
26
102
{ACAD_REACTORS
330
1A
102
}
330
1A
100
AcDbPlotSettings
  1

  2
none_device
  4

  6

 40
0.0
 41
0.0
 42
0.0
 43
0.0
 44
0.0
 45
0.0
 46
0.0
 47
0.0
 48
0.0
 49
0.0
140
0.0
141
0.0
142
1.0
143
1.0
 70
   688
 72
     0
 73
     0
 74
     5
  7

 75
    16
 76
     0
 77
     2
 78
   300
147
1.0
148
0.0
149
0.0
100
AcDbLayout
  1
Layout2
 70
     1
 71
     2
 10
0.0
 20
0.0
 11
0.0
 21
0.0
 12
0.0
 22
0.0
 32
0.0
 14
0.0
 24
0.0
 34
0.0
 15
0.0
 25
0.0
 35
0.0
146
0.0
 13
0.0
 23
0.0
 33
0.0
 16
1.0
 26
0.0
 36
0.0
 17
0.0
 27
1.0
 37
0.0
 76
     0
330
23
  0
LAYOUT
  5
22
102
{ACAD_REACTORS
330
1A
102
}
330
1A
100
AcDbPlotSettings
  1

  2
none_device
  4

  6

 40
0.0
 41
0.0
 42
0.0
 43
0.0
 44
0.0
 45
0.0
 46
0.0
 47
0.0
 48
0.0
 49
0.0
140
0.0
141
0.0
142
1.0
143
1.0
 70
  1712
 72
     0
 73
     0
 74
     0
  7

 75
     0
 76
     0
 77
     2
 78
   300
147
1.0
148
0.0
149
0.0
100
AcDbLayout
  1
Model
 70
     1
 71
     0
 10
0.0
 20
0.0
 11
12.0
 21
9.0
 12
0.0
 22
0.0
 32
0.0
 14
1.000000000000000E+20
 24
1.000000000000000E+20
 34
1.000000000000000E+20
 15
-1.000000000000000E+20
 25
-1.000000000000000E+20
 35
-1.000000000000000E+20
146
0.0
 13
0.0
 23
0.0
 33
0.0
 16
1.0
 26
0.0
 36
0.0
 17
0.0
 27
1.0
 37
0.0
 76
     0
330
1F
331
29
  0
MLINESTYLE
  5
18
102
{ACAD_REACTORS
330
17
102
}
330
17
100
AcDbMlineStyle
  2
Standard
 70
     0
  3

 62
   256
 51
90.0
 52
90.0
 71
     2
 49
0.5
 62
   256
  6
BYLAYER
 49
-0.5
 62
   256
  6
BYLAYER
  0
ACDBPLACEHOLDER
  5
F
102
{ACAD_REACTORS
330
E
102
}
330
E
  0
SCALE
  5
3C
102
{ACAD_REACTORS
330
3B
102
}
330
3B
100
AcDbScale
 70
     0
300
1:1
140
1.0
141
1.0
290
     1
  0
SCALE
  5
3D
102
{ACAD_REACTORS
330
3B
102
}
330
3B
100
AcDbScale
 70
     0
300
1:2
140
1.0
141
2.0
290
     0
  0
SCALE
  5
3E
102
{ACAD_REACTORS
330
3B
102
}
330
3B
100
AcDbScale
 70
     0
300
1:4
140
1.0
141
4.0
290
     0
  0
SCALE
  5
3F
102
{ACAD_REACTORS
330
3B
102
}
330
3B
100
AcDbScale
 70
     0
300
1:5
140
1.0
141
5.0
290
     0
  0
SCALE
  5
40
102
{ACAD_REACTORS
330
3B
102
}
330
3B
100
AcDbScale
 70
     0
300
1:8
140
1.0
141
8.0
290
     0
  0
SCALE
  5
41
102
{ACAD_REACTORS
330
3B
102
}
330
3B
100
AcDbScale
 70
     0
300
1:10
140
1.0
141
10.0
290
     0
  0
SCALE
  5
42
102
{ACAD_REACTORS
330
3B
102
}
330
3B
100
AcDbScale
 70
     0
300
1:16
140
1.0
141
16.0
290
     0
  0
SCALE
  5
43
102
{ACAD_REACTORS
330
3B
102
}
330
3B
100
AcDbScale
 70
     0
300
1:20
140
1.0
141
20.0
290
     0
  0
SCALE
  5
44
102
{ACAD_REACTORS
330
3B
102
}
330
3B
100
AcDbScale
 70
     0
300
1:30
140
1.0
141
30.0
290
     0
  0
SCALE
  5
45
102
{ACAD_REACTORS
330
3B
102
}
330
3B
100
AcDbScale
 70
     0
300
1:40
140
1.0
141
40.0
290
     0
  0
SCALE
  5
46
102
{ACAD_REACTORS
330
3B
102
}
330
3B
100
AcDbScale
 70
     0
300
1:50
140
1.0
141
50.0
290
     0
  0
SCALE
  5
47
102
{ACAD_REACTORS
330
3B
102
}
330
3B
100
AcDbScale
 70
     0
300
1:100
140
1.0
141
100.0
290
     0
  0
SCALE
  5
48
102
{ACAD_REACTORS
330
3B
102
}
330
3B
100
AcDbScale
 70
     0
300
2:1
140
2.0
141
1.0
290
     0
  0
SCALE
  5
49
102
{ACAD_REACTORS
330
3B
102
}
330
3B
100
AcDbScale
 70
     0
300
4:1
140
4.0
141
1.0
290
     0
  0
SCALE
  5
4A
102
{ACAD_REACTORS
330
3B
102
}
330
3B
100
AcDbScale
 70
     0
300
8:1
140
8.0
141
1.0
290
     0
  0
SCALE
  5
4B
102
{ACAD_REACTORS
330
3B
102
}
330
3B
100
AcDbScale
 70
     0
300
10:1
140
10.0
141
1.0
290
     0
  0
SCALE
  5
4C
102
{ACAD_REACTORS
330
3B
102
}
330
3B
100
AcDbScale
 70
     0
300
100:1
140
100.0
141
1.0
290
     0
  0
SCALE
  5
4D
102
{ACAD_REACTORS
330
3B
102
}
330
3B
100
AcDbScale
 70
     0
300
1/128" = 1'-0"
140
0.0078125
141
12.0
290
     0
  0
SCALE
  5
4E
102
{ACAD_REACTORS
330
3B
102
}
330
3B
100
AcDbScale
 70
     0
300
1/64" = 1'-0"
140
0.015625
141
12.0
290
     0
  0
SCALE
  5
4F
102
{ACAD_REACTORS
330
3B
102
}
330
3B
100
AcDbScale
 70
     0
300
1/32" = 1'-0"
140
0.03125
141
12.0
290
     0
  0
SCALE
  5
50
102
{ACAD_REACTORS
330
3B
102
}
330
3B
100
AcDbScale
 70
     0
300
1/16" = 1'-0"
140
0.0625
141
12.0
290
     0
  0
SCALE
  5
51
102
{ACAD_REACTORS
330
3B
102
}
330
3B
100
AcDbScale
 70
     0
300
3/32" = 1'-0"
140
0.09375
141
12.0
290
     0
  0
SCALE
  5
52
102
{ACAD_REACTORS
330
3B
102
}
330
3B
100
AcDbScale
 70
     0
300
1/8" = 1'-0"
140
0.125
141
12.0
290
     0
  0
SCALE
  5
53
102
{ACAD_REACTORS
330
3B
102
}
330
3B
100
AcDbScale
 70
     0
300
3/16" = 1'-0"
140
0.1875
141
12.0
290
     0
  0
SCALE
  5
54
102
{ACAD_REACTORS
330
3B
102
}
330
3B
100
AcDbScale
 70
     0
300
1/4" = 1'-0"
140
0.25
141
12.0
290
     0
  0
SCALE
  5
55
102
{ACAD_REACTORS
330
3B
102
}
330
3B
100
AcDbScale
 70
     0
300
3/8" = 1'-0"
140
0.375
141
12.0
290
     0
  0
SCALE
  5
56
102
{ACAD_REACTORS
330
3B
102
}
330
3B
100
AcDbScale
 70
     0
300
1/2" = 1'-0"
140
0.5
141
12.0
290
     0
  0
SCALE
  5
57
102
{ACAD_REACTORS
330
3B
102
}
330
3B
100
AcDbScale
 70
     0
300
3/4" = 1'-0"
140
0.75
141
12.0
290
     0
  0
SCALE
  5
58
102
{ACAD_REACTORS
330
3B
102
}
330
3B
100
AcDbScale
 70
     0
300
1" = 1'-0"
140
1.0
141
12.0
290
     0
  0
SCALE
  5
59
102
{ACAD_REACTORS
330
3B
102
}
330
3B
100
AcDbScale
 70
     0
300
1-1/2" = 1'-0"
140
1.5
141
12.0
290
     0
  0
SCALE
  5
5A
102
{ACAD_REACTORS
330
3B
102
}
330
3B
100
AcDbScale
 70
     0
300
3" = 1'-0"
140
3.0
141
12.0
290
     0
  0
SCALE
  5
5B
102
{ACAD_REACTORS
330
3B
102
}
330
3B
100
AcDbScale
 70
     0
300
6" = 1'-0"
140
6.0
141
12.0
290
     0
  0
SCALE
  5
5C
102
{ACAD_REACTORS
330
3B
102
}
330
3B
100
AcDbScale
 70
     0
300
1'-0" = 1'-0"
140
12.0
141
12.0
290
     0
  0
VISUALSTYLE
  5
2F
102
{ACAD_REACTORS
330
2A
102
}
330
2A
100
AcDbVisualStyle
  2
2dWireframe
 70
     4
 71
     0
 72
     2
 73
     0
 90
        0
 40
-0.6
 41
-30.0
 62
     5
 63
     7
421
 16777215
 74
     1
 91
        4
 64
     7
 65
   257
 75
     1
175
     1
 42
1.0
 92
        0
 66
   257
 43
1.0
 76
     1
 77
     6
 78
     2
 67
     7
 79
     5
170
     0
171
     0
290
     0
174
     0
 93
        1
 44
0.0
173
     0
291
     0
 45
0.0
1001
ACAD
1000
AcDbSavedByObjectVersion
1070
     0
  0
VISUALSTYLE
  5
31
102
{ACAD_REACTORS
330
2A
102
}
330
2A
100
AcDbVisualStyle
  2
3D Hidden
 70
     6
 71
     1
 72
     2
 73
     2
 90
        0
 40
-0.6
 41
-30.0
 62
     5
 63
     7
421
 16777215
 74
     2
 91
        2
 64
     7
 65
   257
 75
     2
175
     1
 42
40.0
 92
        0
 66
   257
 43
1.0
 76
     1
 77
     6
 78
     2
 67
     7
 79
     3
170
     0
171
     0
290
     0
174
     0
 93
        1
 44
0.0
173
     0
291
     0
 45
0.0
1001
ACAD
1000
AcDbSavedByObjectVersion
1070
     0
  0
VISUALSTYLE
  5
30
102
{ACAD_REACTORS
330
2A
102
}
330
2A
100
AcDbVisualStyle
  2
3dWireframe
 70
     5
 71
     0
 72
     2
 73
     0
 90
        0
 40
-0.6
 41
-30.0
 62
     5
 63
     7
421
 16777215
 74
     1
 91
        4
 64
     7
 65
   257
 75
     1
175
     1
 42
1.0
 92
        0
 66
   257
 43
1.0
 76
     1
 77
     6
 78
     2
 67
     7
 79
     5
170
     0
171
     0
290
     0
174
     0
 93
        1
 44
0.0
173
     0
291
     0
 45
0.0
1001
ACAD
1000
AcDbSavedByObjectVersion
1070
     0
  0
VISUALSTYLE
  5
32
102
{ACAD_REACTORS
330
2A
102
}
330
2A
100
AcDbVisualStyle
  2
Basic
 70
     7
 71
     1
 72
     0
 73
     1
 90
        0
 40
-0.6
 41
-30.0
 62
     5
 63
     7
421
 16777215
 74
     0
 91
        4
 64
     7
 65
   257
 75
     1
175
     1
 42
1.0
 92
        8
 66
     7
 43
1.0
 76
     1
 77
     6
 78
     2
 67
     7
 79
     5
170
     0
171
     0
290
     0
174
     0
 93
        1
 44
0.0
173
     0
291
     1
 45
0.0
1001
ACAD
1000
AcDbSavedByObjectVersion
1070
     0
  0
VISUALSTYLE
  5
36
102
{ACAD_REACTORS
330
2A
102
}
330
2A
100
AcDbVisualStyle
  2
Brighten
 70
    12
 71
     2
 72
     2
 73
     0
 90
        0
 40
-0.6
 41
-30.0
 62
     5
 63
     7
421
 16777215
 74
     1
 91
        4
 64
     7
 65
   257
 75
     1
175
     1
 42
1.0
 92
        8
 66
     7
 43
1.0
 76
     1
 77
     6
 78
     2
 67
     7
 79
     5
170
     0
171
     0
290
     0
174
     0
 93
        1
 44
50.0
173
     0
291
     1
 45
0.0
1001
ACAD
1000
AcDbSavedByObjectVersion
1070
     0
  0
VISUALSTYLE
  5
3A
102
{ACAD_REACTORS
330
2A
102
}
330
2A
100
AcDbVisualStyle
  2
ColorChange
 70
    16
 71
     2
 72
     2
 73
     3
 90
        0
 40
-0.6
 41
-30.0
 62
     5
 63
     8
421
  8421504
 74
     1
 91
        4
 64
     7
 65
   257
 75
     1
175
     1
 42
1.0
 92
        8
 66
     8
424
  8421504
 43
1.0
 76
     1
 77
     6
 78
     2
 67
     7
 79
     5
170
     0
171
     0
290
     0
174
     0
 93
        1
 44
0.0
173
     0
291
     1
 45
0.0
1001
ACAD
1000
AcDbSavedByObjectVersion
1070
     0
  0
VISUALSTYLE
  5
34
102
{ACAD_REACTORS
330
2A
102
}
330
2A
100
AcDbVisualStyle
  2
Conceptual
 70
     9
 71
     3
 72
     2
 73
     0
 90
        0
 40
-0.6
 41
-30.0
 62
     5
 63
     7
421
 16777215
 74
     2
 91
        2
 64
     7
 65
   257
 75
     1
175
     1
 42
40.0
 92
        8
 66
     7
 43
1.0
 76
     1
 77
     6
 78
     2
 67
     7
 79
     3
170
     0
171
     0
290
     0
174
     0
 93
        1
 44
0.0
173
     0
291
     0
 45
0.0
1001
ACAD
1000
AcDbSavedByObjectVersion
1070
     0
  0
VISUALSTYLE
  5
35
102
{ACAD_REACTORS
330
2A
102
}
330
2A
100
AcDbVisualStyle
  2
Dim
 70
    11
 71
     2
 72
     2
 73
     0
 90
        0
 40
-0.6
 41
-30.0
 62
     5
 63
     7
421
 16777215
 74
     1
 91
        4
 64
     7
 65
   257
 75
     1
175
     1
 42
1.0
 92
        8
 66
     7
 43
1.0
 76
     1
 77
     6
 78
     2
 67
     7
 79
     5
170
     0
171
     0
290
     0
174
     0
 93
        1
 44
-50.0
173
     0
291
     1
 45
0.0
1001
ACAD
1000
AcDbSavedByObjectVersion
1070
     0
  0
VISUALSTYLE
  5
39
102
{ACAD_REACTORS
330
2A
102
}
330
2A
100
AcDbVisualStyle
  2
Facepattern
 70
    15
 71
     2
 72
     2
 73
     0
 90
        0
 40
-0.6
 41
-30.0
 62
     5
 63
     7
421
 16777215
 74
     1
 91
        4
 64
     7
 65
   257
 75
     1
175
     1
 42
1.0
 92
        8
 66
     7
 43
1.0
 76
     1
 77
     6
 78
     2
 67
     7
 79
     5
170
     0
171
     0
290
     0
174
     0
 93
        1
 44
0.0
173
     0
291
     1
 45
0.0
1001
ACAD
1000
AcDbSavedByObjectVersion
1070
     0
  0
VISUALSTYLE
  5
2B
102
{ACAD_REACTORS
330
2A
102
}
330
2A
100
AcDbVisualStyle
  2
Flat
 70
     0
 71
     2
 72
     1
 73
     1
 90
        2
 40
-0.6
 41
30.0
 62
     5
 63
     7
421
 16777215
 74
     0
 91
        4
 64
     7
 65
   257
 75
     1
175
     1
 42
1.0
 92
        8
 66
     7
 43
1.0
 76
     1
 77
     6
 78
     2
 67
     7
 79
     5
170
     0
171
     0
290
     0
174
     0
 93
       13
 44
0.0
173
     0
291
     1
 45
0.0
1001
ACAD
1000
AcDbSavedByObjectVersion
1070
     0
  0
VISUALSTYLE
  5
2C
102
{ACAD_REACTORS
330
2A
102
}
330
2A
100
AcDbVisualStyle
  2
FlatWithEdges
 70
     1
 71
     2
 72
     1
 73
     1
 90
        2
 40
-0.6
 41
30.0
 62
     5
 63
     7
421
 16777215
 74
     1
 91
        4
 64
     7
 65
   257
 75
     1
175
     1
 42
1.0
 92
        0
 66
   257
 43
1.0
 76
     1
 77
     6
 78
     2
 67
     7
 79
     5
170
     0
171
     0
290
     0
174
     0
 93
       13
 44
0.0
173
     0
291
     1
 45
0.0
1001
ACAD
1000
AcDbSavedByObjectVersion
1070
     0
  0
VISUALSTYLE
  5
2D
102
{ACAD_REACTORS
330
2A
102
}
330
2A
100
AcDbVisualStyle
  2
Gouraud
 70
     2
 71
     2
 72
     2
 73
     1
 90
        2
 40
-0.6
 41
30.0
 62
     5
 63
     7
421
 16777215
 74
     0
 91
        4
 64
     7
 65
   257
 75
     1
175
     1
 42
1.0
 92
        0
 66
     7
 43
1.0
 76
     1
 77
     6
 78
     2
 67
     7
 79
     5
170
     0
171
     0
290
     0
174
     0
 93
       13
 44
0.0
173
     0
291
     1
 45
0.0
1001
ACAD
1000
AcDbSavedByObjectVersion
1070
     0
  0
VISUALSTYLE
  5
2E
102
{ACAD_REACTORS
330
2A
102
}
330
2A
100
AcDbVisualStyle
  2
GouraudWithEdges
 70
     3
 71
     2
 72
     2
 73
     1
 90
        2
 40
-0.6
 41
30.0
 62
     5
 63
     7
421
 16777215
 74
     1
 91
        4
 64
     7
 65
   257
 75
     1
175
     1
 42
1.0
 92
        0
 66
   257
 43
1.0
 76
     1
 77
     6
 78
     2
 67
     7
 79
     5
170
     0
171
     0
290
     0
174
     0
 93
       13
 44
0.0
173
     0
291
     1
 45
0.0
1001
ACAD
1000
AcDbSavedByObjectVersion
1070
     0
  0
VISUALSTYLE
  5
38
102
{ACAD_REACTORS
330
2A
102
}
330
2A
100
AcDbVisualStyle
  2
Linepattern
 70
    14
 71
     2
 72
     2
 73
     0
 90
        0
 40
-0.6
 41
-30.0
 62
     5
 63
     7
421
 16777215
 74
     1
 91
        4
 64
     7
 65
   257
 75
     7
175
     7
 42
1.0
 92
        8
 66
     7
 43
1.0
 76
     1
 77
     6
 78
     2
 67
     7
 79
     5
170
     0
171
     0
290
     0
174
     0
 93
        1
 44
0.0
173
     0
291
     1
 45
0.0
1001
ACAD
1000
AcDbSavedByObjectVersion
1070
     0
  0
VISUALSTYLE
  5
33
102
{ACAD_REACTORS
330
2A
102
}
330
2A
100
AcDbVisualStyle
  2
Realistic
 70
     8
 71
     2
 72
     2
 73
     0
 90
        0
 40
-0.6
 41
-30.0
 62
     5
 63
     7
421
 16777215
 74
     1
 91
        0
 64
     7
 65
   257
 75
     1
175
     1
 42
1.0
 92
        8
 66
     8
424
  7895160
 43
1.0
 76
     1
 77
     6
 78
     2
 67
     7
 79
     5
170
     0
171
     0
290
     0
174
     0
 93
       13
 44
0.0
173
     0
291
     0
 45
0.0
1001
ACAD
1000
AcDbSavedByObjectVersion
1070
     0
  0
VISUALSTYLE
  5
37
102
{ACAD_REACTORS
330
2A
102
}
330
2A
100
AcDbVisualStyle
  2
Thicken
 70
    13
 71
     2
 72
     2
 73
     0
 90
        0
 40
-0.6
 41
-30.0
 62
     5
 63
     7
421
 16777215
 74
     1
 91
        4
 64
     7
 65
   257
 75
     1
175
     1
 42
1.0
 92
       12
 66
     7
 43
1.0
 76
     1
 77
     6
 78
     2
 67
     7
 79
     5
170
     0
171
     0
290
     0
174
     0
 93
        1
 44
0.0
173
     0
291
     1
 45
0.0
1001
ACAD
1000
AcDbSavedByObjectVersion
1070
     0
  0
ENDSEC
  0
EOF
