  0
SECTION
  2
HEADER
  9
$ACADVER
  1
AC1018
  9
$ACADMAINTVER
 70
     0
  9
$DWGCODEPAGE
  3
ANSI_1252
  9
$INSBASE
 10
0.0
 20
0.0
 30
0.0
  9
$EXTMIN
 10
1.000000000000000E+20
 20
1.000000000000000E+20
 30
1.000000000000000E+20
  9
$EXTMAX
 10
-1.000000000000000E+20
 20
-1.000000000000000E+20
 30
-1.000000000000000E+20
  9
$LIMMIN
 10
0.0
 20
0.0
  9
$LIMMAX
 10
12.0
 20
9.0
  9
$ORTHOMODE
 70
     0
  9
$REGENMODE
 70
     1
  9
$FILLMODE
 70
     1
  9
$QTEXTMODE
 70
     0
  9
$MIRRTEXT
 70
     1
  9
$LTSCALE
 40
1.0
  9
$ATTMODE
 70
     1
  9
$TEXTSIZE
 40
0.2
  9
$TRACEWID
 40
0.05
  9
$TEXTSTYLE
  7
Standard
  9
$CLAYER
  8
0
  9
$CELTYPE
  6
ByLayer
  9
$CECOLOR
 62
   256
  9
$CELTSCALE
 40
1.0
  9
$DISPSILH
 70
     0
  9
$DIMSCALE
 40
1.0
  9
$DIMASZ
 40
0.18
  9
$DIMEXO
 40
0.0625
  9
$DIMDLI
 40
0.38
  9
$DIMRND
 40
0.0
  9
$DIMDLE
 40
0.0
  9
$DIMEXE
 40
0.18
  9
$DIMTP
 40
0.0
  9
$DIMTM
 40
0.0
  9
$DIMTXT
 40
0.18
  9
$DIMCEN
 40
0.09
  9
$DIMTSZ
 40
0.0
  9
$DIMTOL
 70
     0
  9
$DIMLIM
 70
     0
  9
$DIMTIH
 70
     1
  9
$DIMTOH
 70
     1
  9
$DIMSE1
 70
     0
  9
$DIMSE2
 70
     0
  9
$DIMTAD
 70
     0
  9
$DIMZIN
 70
     0
  9
$DIMBLK
  1

  9
$DIMASO
 70
     1
  9
$DIMSHO
 70
     1
  9
$DIMPOST
  1

  9
$DIMAPOST
  1

  9
$DIMALT
 70
     0
  9
$DIMALTD
 70
     2
  9
$DIMALTF
 40
25.4
  9
$DIMLFAC
 40
1.0
  9
$DIMTOFL
 70
     0
  9
$DIMTVP
 40
0.0
  9
$DIMTIX
 70
     0
  9
$DIMSOXD
 70
     0
  9
$DIMSAH
 70
     0
  9
$DIMBLK1
  1

  9
$DIMBLK2
  1

  9
$DIMSTYLE
  2
Standard
  9
$DIMCLRD
 70
     0
  9
$DIMCLRE
 70
     0
  9
$DIMCLRT
 70
     0
  9
$DIMTFAC
 40
1.0
  9
$DIMGAP
 40
0.09
  9
$DIMJUST
 70
     0
  9
$DIMSD1
 70
     0
  9
$DIMSD2
 70
     0
  9
$DIMTOLJ
 70
     1
  9
$DIMTZIN
 70
     0
  9
$DIMALTZ
 70
     0
  9
$DIMALTTZ
 70
     0
  9
$DIMUPT
 70
     0
  9
$DIMDEC
 70
     4
  9
$DIMTDEC
 70
     4
  9
$DIMALTU
 70
     2
  9
$DIMALTTD
 70
     2
  9
$DIMTXSTY
  7
Standard
  9
$DIMAUNIT
 70
     0
  9
$DIMADEC
 70
     0
  9
$DIMALTRND
 40
0.0
  9
$DIMAZIN
 70
     0
  9
$DIMDSEP
 70
    46
  9
$DIMATFIT
 70
     3
  9
$DIMFRAC
 70
     0
  9
$DIMLDRBLK
  1

  9
$DIMLUNIT
 70
     2
  9
$DIMLWD
 70
    -2
  9
$DIMLWE
 70
    -2
  9
$DIMTMOVE
 70
     0
  9
$LUNITS
 70
     2
  9
$LUPREC
 70
     4
  9
$SKETCHINC
 40
0.1
  9
$FILLETRAD
 40
0.5
  9
$AUNITS
 70
     0
  9
$AUPREC
 70
     0
  9
$MENU
  1
.
  9
$ELEVATION
 40
0.0
  9
$PELEVATION
 40
0.0
  9
$THICKNESS
 40
0.0
  9
$LIMCHECK
 70
     0
  9
$CHAMFERA
 40
0.5
  9
$CHAMFERB
 40
0.5
  9
$CHAMFERC
 40
1.0
  9
$CHAMFERD
 40
0.0
  9
$SKPOLY
 70
     0
  9
$TDCREATE
 40
2456793.487986991
  9
$TDUCREATE
 40
2456793.404653657
  9
$TDUPDATE
 40
2456793.487987002
  9
$TDUUPDATE
 40
2456793.404653669
  9
$TDINDWG
 40
0.0000000116
  9
$TDUSRTIMER
 40
0.0000000116
  9
$USRTIMER
 70
     1
  9
$ANGBASE
 50
0.0
  9
$ANGDIR
 70
     0
  9
$PDMODE
 70
     0
  9
$PDSIZE
 40
0.0
  9
$PLINEWID
 40
0.0
  9
$SPLFRAME
 70
     0
  9
$SPLINETYPE
 70
     6
  9
$SPLINESEGS
 70
     8
  9
$HANDSEED
  5
93
  9
$SURFTAB1
 70
     6
  9
$SURFTAB2
 70
     6
  9
$SURFTYPE
 70
     6
  9
$SURFU
 70
     6
  9
$SURFV
 70
     6
  9
$UCSBASE
  2

  9
$UCSNAME
  2

  9
$UCSORG
 10
0.0
 20
0.0
 30
0.0
  9
$UCSXDIR
 10
1.0
 20
0.0
 30
0.0
  9
$UCSYDIR
 10
0.0
 20
1.0
 30
0.0
  9
$UCSORTHOREF
  2

  9
$UCSORTHOVIEW
 70
     0
  9
$UCSORGTOP
 10
0.0
 20
0.0
 30
0.0
  9
$UCSORGBOTTOM
 10
0.0
 20
0.0
 30
0.0
  9
$UCSORGLEFT
 10
0.0
 20
0.0
 30
0.0
  9
$UCSORGRIGHT
 10
0.0
 20
0.0
 30
0.0
  9
$UCSORGFRONT
 10
0.0
 20
0.0
 30
0.0
  9
$UCSORGBACK
 10
0.0
 20
0.0
 30
0.0
  9
$PUCSBASE
  2

  9
$PUCSNAME
  2

  9
$PUCSORG
 10
0.0
 20
0.0
 30
0.0
  9
$PUCSXDIR
 10
1.0
 20
0.0
 30
0.0
  9
$PUCSYDIR
 10
0.0
 20
1.0
 30
0.0
  9
$PUCSORTHOREF
  2

  9
$PUCSORTHOVIEW
 70
     0
  9
$PUCSORGTOP
 10
0.0
 20
0.0
 30
0.0
  9
$PUCSORGBOTTOM
 10
0.0
 20
0.0
 30
0.0
  9
$PUCSORGLEFT
 10
0.0
 20
0.0
 30
0.0
  9
$PUCSORGRIGHT
 10
0.0
 20
0.0
 30
0.0
  9
$PUCSORGFRONT
 10
0.0
 20
0.0
 30
0.0
  9
$PUCSORGBACK
 10
0.0
 20
0.0
 30
0.0
  9
$USERI1
 70
     0
  9
$USERI2
 70
     0
  9
$USERI3
 70
     0
  9
$USERI4
 70
     0
  9
$USERI5
 70
     0
  9
$USERR1
 40
0.0
  9
$USERR2
 40
0.0
  9
$USERR3
 40
0.0
  9
$USERR4
 40
0.0
  9
$USERR5
 40
0.0
  9
$WORLDVIEW
 70
     1
  9
$SHADEDGE
 70
     3
  9
$SHADEDIF
 70
    70
  9
$TILEMODE
 70
     1
  9
$MAXACTVP
 70
    64
  9
$PINSBASE
 10
0.0
 20
0.0
 30
0.0
  9
$PLIMCHECK
 70
     0
  9
$PEXTMIN
 10
1.000000000000000E+20
 20
1.000000000000000E+20
 30
1.000000000000000E+20
  9
$PEXTMAX
 10
-1.000000000000000E+20
 20
-1.000000000000000E+20
 30
-1.000000000000000E+20
  9
$PLIMMIN
 10
0.0
 20
0.0
  9
$PLIMMAX
 10
12.0
 20
9.0
  9
$UNITMODE
 70
     0
  9
$VISRETAIN
 70
     1
  9
$PLINEGEN
 70
     0
  9
$PSLTSCALE
 70
     1
  9
$TREEDEPTH
 70
  3020
  9
$CMLSTYLE
  2
Standard
  9
$CMLJUST
 70
     0
  9
$CMLSCALE
 40
1.0
  9
$PROXYGRAPHICS
 70
     1
  9
$MEASUREMENT
 70
     0
  9
$CELWEIGHT
370
    -1
  9
$ENDCAPS
280
     0
  9
$JOINSTYLE
280
     0
  9
$LWDISPLAY
290
     0
  9
$INSUNITS
 70
    13
  9
$HYPERLINKBASE
  1

  9
$STYLESHEET
  1

  9
$XEDIT
290
     1
  9
$CEPSNTYPE
380
     0
  9
$PSTYLEMODE
290
     1
  9
$FINGERPRINTGUID
  2
{04407099-3DFF-46F2-A110-6F1F0A65F248}
  9
$VERSIONGUID
  2
{FAEB1C32-E019-11D5-929B-00C0DF256EC4}
  9
$EXTNAMES
290
     1
  9
$PSVPSCALE
 40
0.0
  9
$OLESTARTUP
290
     0
  9
$SORTENTS
280
   127
  9
$INDEXCTL
280
     0
  9
$HIDETEXT
280
     1
  9
$XCLIPFRAME
290
     0
  9
$HALOGAP
280
     0
  9
$OBSCOLOR
 70
   257
  9
$OBSLTYPE
280
     0
  9
$INTERSECTIONDISPLAY
280
     0
  9
$INTERSECTIONCOLOR
 70
   257
  9
$DIMASSOC
280
     2
  9
$PROJECTNAME
  1

  0
ENDSEC
  0
SECTION
  2
CLASSES
  0
CLASS
  1
ACDBDICTIONARYWDFLT
  2
AcDbDictionaryWithDefault
  3
ObjectDBX Classes
 90
        0
 91
       16
280
     0
281
     0
  0
CLASS
  1
VISUALSTYLE
  2
AcDbVisualStyle
  3
ObjectDBX Classes
 90
     4095
 91
       16
280
     0
281
     0
  0
CLASS
  1
SCALE
  2
AcDbScale
  3
ObjectDBX Classes
 90
     1153
 91
       16
280
     0
281
     0
  0
ENDSEC
  0
SECTION
  2
TABLES
  0
TABLE
  2
VPORT
  5
8
330
0
100
AcDbSymbolTable
 70
     1
  0
VPORT
  5
29
330
8
100
AcDbSymbolTableRecord
100
AcDbViewportTableRecord
  2
*Active
 70
     0
 10
0.0
 20
0.0
 11
1.0
 21
1.0
 12
10.42990654205607
 22
4.5
 13
0.0
 23
0.0
 14
0.5
 24
0.5
 15
0.5
 25
0.5
 16
0.0
 26
0.0
 36
1.0
 17
0.0
 27
0.0
 37
0.0
 40
9.0
 41
1.972972972850329
 42
50.0
 43
0.0
 44
0.0
 50
0.0
 51
0.0
 71
     0
 72
   100
 73
     1
 74
     3
 75
     0
 76
     0
 77
     0
 78
     0
281
     0
 65
     1
110
0.0
120
0.0
130
0.0
111
1.0
121
0.0
131
0.0
112
0.0
122
1.0
132
0.0
 79
     0
146
0.0
  0
ENDTAB
  0
TABLE
  2
LTYPE
  5
5
330
0
100
AcDbSymbolTable
 70
     1
  0
LTYPE
  5
14
330
5
100
AcDbSymbolTableRecord
100
AcDbLinetypeTableRecord
  2
ByBlock
 70
     0
  3

 72
    65
 73
     0
 40
0.0
  0
LTYPE
  5
15
330
5
100
AcDbSymbolTableRecord
100
AcDbLinetypeTableRecord
  2
ByLayer
 70
     0
  3

 72
    65
 73
     0
 40
0.0
  0
LTYPE
  5
16
330
5
100
AcDbSymbolTableRecord
100
AcDbLinetypeTableRecord
  2
Continuous
 70
     0
  3
Solid line
 72
    65
 73
     0
 40
0.0
  0
ENDTAB
  0
TABLE
  2
LAYER
  5
2
330
0
100
AcDbSymbolTable
 70
     2
  0
LAYER
  5
10
330
2
100
AcDbSymbolTableRecord
100
AcDbLayerTableRecord
  2
0
 70
     0
 62
     7
  6
Continuous
370
    -3
390
F
  0
LAYER
  5
5F
330
2
100
AcDbSymbolTableRecord
100
AcDbLayerTableRecord
  2
text2
 70
     0
 62
    16
420
  8388608
  6
Continuous
370
    -3
390
F
  0
ENDTAB
  0
TABLE
  2
STYLE
  5
3
330
0
100
AcDbSymbolTable
 70
     1
  0
STYLE
  5
11
330
3
100
AcDbSymbolTableRecord
100
AcDbTextStyleTableRecord
  2
Standard
 70
     0
 40
0.0
 41
1.0
 50
0.0
 71
     0
 42
0.2
  3
txt
  4

  0
ENDTAB
  0
TABLE
  2
VIEW
  5
6
330
0
100
AcDbSymbolTable
 70
     0
  0
ENDTAB
  0
TABLE
  2
UCS
  5
7
330
0
100
AcDbSymbolTable
 70
     0
  0
ENDTAB
  0
TABLE
  2
APPID
  5
9
330
0
100
AcDbSymbolTable
 70
     1
  0
APPID
  5
12
330
9
100
AcDbSymbolTableRecord
100
AcDbRegAppTableRecord
  2
ACAD
 70
     0
  0
ENDTAB
  0
TABLE
  2
DIMSTYLE
  5
A
330
0
100
AcDbSymbolTable
 70
     1
100
AcDbDimStyleTable
  0
DIMSTYLE
105
27
330
A
100
AcDbSymbolTableRecord
100
AcDbDimStyleTableRecord
  2
Standard
 70
     0
340
11
  0
ENDTAB
  0
TABLE
  2
BLOCK_RECORD
  5
1
330
0
100
AcDbSymbolTable
 70
     2
  0
BLOCK_RECORD
  5
1F
330
1
100
AcDbSymbolTableRecord
100
AcDbBlockTableRecord
  2
*Model_Space
340
22
  0
BLOCK_RECORD
  5
1B
330
1
100
AcDbSymbolTableRecord
100
AcDbBlockTableRecord
  2
*Paper_Space
340
1E
  0
BLOCK_RECORD
  5
23
330
1
100
AcDbSymbolTableRecord
100
AcDbBlockTableRecord
  2
*Paper_Space0
340
26
  0
BLOCK_RECORD
  5
8D
330
1
100
AcDbSymbolTableRecord
100
AcDbBlockTableRecord
  2
APZ0042_win_pp10_chip_street_win_pp10_chip_street1
340
0
102
{BLKREFS
331
5D
102
}
  0
ENDTAB
  0
ENDSEC
  0
SECTION
  2
BLOCKS
  0
BLOCK
  5
20
330
1F
100
AcDbEntity
  8
0
100
AcDbBlockBegin
  2
*Model_Space
 70
     0
 10
0.0
 20
0.0
 30
0.0
  3
*Model_Space
  1

  0
ENDBLK
  5
21
330
1F
100
AcDbEntity
  8
0
100
AcDbBlockEnd
  0
BLOCK
  5
1C
330
1B
100
AcDbEntity
 67
     1
  8
0
100
AcDbBlockBegin
  2
*Paper_Space
 70
     0
 10
0.0
 20
0.0
 30
0.0
  3
*Paper_Space
  1

  0
ENDBLK
  5
1D
330
1B
100
AcDbEntity
 67
     1
  8
0
100
AcDbBlockEnd
  0
BLOCK
  5
24
330
23
100
AcDbEntity
  8
0
100
AcDbBlockBegin
  2
*Paper_Space0
 70
     0
 10
0.0
 20
0.0
 30
0.0
  3
*Paper_Space0
  1

  0
ENDBLK
  5
25
330
23
100
AcDbEntity
  8
0
100
AcDbBlockEnd
  0
BLOCK
  5
8E
330
8D
100
AcDbEntity
  8
0
100
AcDbBlockBegin
  2
APZ0042_win_pp10_chip_street_win_pp10_chip_street1
 70
     0
 10
0.0
 20
0.0
 30
0.0
  3
APZ0042_win_pp10_chip_street_win_pp10_chip_street1
  1

  0
LWPOLYLINE
  5
90
330
8D
100
AcDbEntity
  8
text2
100
AcDbPolyline
 90
        4
 70
     1
 43
0.0
 10
-1090.0
 20
-1100.0
 10
1890.0
 20
-1100.0
 10
1890.0
 20
1900.0
 10
-1090.0
 20
1900.0
  0
ENDBLK
  5
8F
330
8D
100
AcDbEntity
  8
0
100
AcDbBlockEnd
  0
ENDSEC
  0
SECTION
  2
ENTITIES
  0
INSERT
  5
5D
330
1F
100
AcDbEntity
  8
0
100
AcDbBlockReference
  2
APZ0042_win_pp10_chip_street_win_pp10_chip_street1
 10
921.25
 20
1100.0
 30
0.0
  0
LWPOLYLINE
  5
5E
330
1F
100
AcDbEntity
  8
text2
100
AcDbPolyline
 90
       10
 70
     1
 43
0.0
 10
-103.75
 20
558.8000000000001
 10
-103.75
 20
575.944
 10
-98.034
 20
581.6560000000001
 10
-63.75
 20
581.6560000000001
 10
-63.75
 20
575.944
 10
-80.894
 20
575.944
 10
-80.894
 20
558.8000000000001
 10
-63.75
 20
558.8000000000001
 10
-63.75
 20
553.088
 10
-98.034
 20
553.088
  0
LWPOLYLINE
  5
60
330
1F
100
AcDbEntity
  8
text2
100
AcDbPolyline
 90
       10
 70
     1
 43
0.0
 10
-103.75
 20
633.088
 10
-103.75
 20
661.6560000000001
 10
-95.178
 20
661.6560000000001
 10
-69.46600000000001
 20
638.8000000000001
 10
-69.46600000000001
 20
661.6560000000001
 10
-63.75
 20
661.6560000000001
 10
-63.75
 20
633.088
 10
-72.322
 20
633.088
 10
-98.034
 20
655.944
 10
-98.034
 20
633.088
  0
LWPOLYLINE
  5
61
330
1F
100
AcDbEntity
  8
text2
100
AcDbPolyline
 90
        8
 70
     1
 43
0.0
 10
-103.75
 20
681.6560000000001
 10
-103.75
 20
693.088
 10
-98.034
 20
698.8000000000001
 10
-69.46600000000001
 20
698.8000000000001
 10
-63.75
 20
693.088
 10
-63.75
 20
681.6560000000001
 10
-69.46600000000001
 20
675.944
 10
-98.034
 20
675.944
  0
LWPOLYLINE
  5
62
330
1F
100
AcDbEntity
  8
text2
100
AcDbPolyline
 90
        8
 70
     1
 43
0.0
 10
-103.75
 20
721.6560000000001
 10
-103.75
 20
733.088
 10
-98.034
 20
738.8000000000001
 10
-69.46600000000001
 20
738.8000000000001
 10
-63.75
 20
733.088
 10
-63.75
 20
721.6560000000001
 10
-69.46600000000001
 20
715.944
 10
-98.034
 20
715.944
  0
LWPOLYLINE
  5
63
330
1F
100
AcDbEntity
  8
text2
100
AcDbPolyline
 90
       15
 70
     1
 43
0.0
 10
-103.75
 20
798.8000000000001
 10
-103.75
 20
815.9440000000001
 10
-98.034
 20
821.6560000000001
 10
-86.60600000000001
 20
821.6560000000001
 10
-69.46600000000001
 20
798.8000000000001
 10
-69.46600000000001
 20
821.6560000000001
 10
-63.75
 20
821.6560000000001
 10
-63.75
 20
793.088
 10
-72.322
 20
793.088
 10
-89.46600000000001
 20
815.9440000000001
 10
-95.178
 20
815.9440000000001
 10
-98.034
 20
813.088
 10
-98.034
 20
801.6560000000001
 10
-95.178
 20
798.8000000000001
 10
-98.034
 20
793.088
  0
LWPOLYLINE
  5
64
330
1F
100
AcDbEntity
  8
text2
100
AcDbPolyline
 90
        8
 70
     1
 43
0.0
 10
-103.75
 20
1719.0
 10
-103.75
 20
1769.0
 10
-75.18
 20
1769.0
 10
-68.04
 20
1761.855
 10
-68.04
 20
1747.57
 10
-75.18
 20
1740.43
 10
-96.61
 20
1740.43
 10
-96.61
 20
1719.0
  0
LWPOLYLINE
  5
65
330
1F
100
AcDbEntity
  8
text2
100
AcDbPolyline
 90
       25
 70
     1
 43
0.0
 10
-102.75
 20
1352.6
 10
-102.75
 20
1430.0
 10
-37.95
 20
1430.0
 10
-33.55
 20
1429.3
 10
-28.85
 20
1426.9
 10
-25.25
 20
1423.3
 10
-22.85
 20
1418.6
 10
-22.05
 20
1413.5
 10
-22.85
 20
1408.4
 10
-25.25
 20
1403.7
 10
-28.85
 20
1400.1
 10
-33.55
 20
1397.7
 10
-37.95
 20
1397.0
 10
-47.25
 20
1397.0
 10
-69.75
 20
1361.8
 10
-69.75
 20
1352.6
 10
-70.45
 20
1348.2
 10
-72.85000000000001
 20
1343.5
 10
-76.45
 20
1339.9
 10
-81.15
 20
1337.5
 10
-86.25
 20
1336.7
 10
-91.35000000000001
 20
1337.5
 10
-96.05
 20
1339.9
 10
-99.65
 20
1343.5
 10
-102.05
 20
1348.2
  0
LWPOLYLINE
  5
66
330
1F
100
AcDbEntity
  8
text2
100
AcDbPolyline
 90
        8
 70
     1
 43
0.0
 10
-102.75
 20
1471.0
 10
-102.75
 20
1529.0
 10
-33.95
 20
1529.0
 10
-3.95
 20
1516.5
 10
5.25
 20
1516.5
 10
5.25
 20
1483.5
 10
-3.95
 20
1483.5
 10
-33.95
 20
1471.0
  0
LWPOLYLINE
  5
67
330
1F
100
AcDbEntity
  8
text2
100
AcDbPolyline
 90
        8
 70
     1
 43
0.0
 10
-80.894
 20
598.8000000000001
 10
-63.75
 20
598.8000000000001
 10
-63.75
 20
593.088
 10
-103.75
 20
593.088
 10
-103.75
 20
615.944
 10
-98.034
 20
621.6560000000001
 10
-86.60600000000001
 20
621.6560000000001
 10
-80.894
 20
615.944
  0
LWPOLYLINE
  5
68
330
1F
100
AcDbEntity
  8
text2
100
AcDbPolyline
 90
       11
 70
     1
 43
0.0
 10
-78.034
 20
775.944
 10
-63.75
 20
775.944
 10
-63.75
 20
770.2280000000001
 10
-78.034
 20
770.2280000000001
 10
-78.034
 20
753.088
 10
-83.75
 20
753.088
 10
-103.75
 20
770.2280000000001
 10
-103.75
 20
775.944
 10
-83.75
 20
775.944
 10
-83.75
 20
781.6560000000001
 10
-78.034
 20
781.6560000000001
  0
LWPOLYLINE
  5
69
330
1F
100
AcDbEntity
  8
text2
100
AcDbPolyline
 90
       16
 70
     1
 43
0.0
 10
-58.034
 20
515.944
 10
-58.034
 20
530.2280000000001
 10
-60.893
 20
533.088
 10
-66.607
 20
533.088
 10
-63.75
 20
530.2280000000001
 10
-63.75
 20
521.6560000000001
 10
-69.46600000000001
 20
515.944
 10
-80.894
 20
515.944
 10
-86.60600000000001
 20
521.6560000000001
 10
-86.60600000000001
 20
530.2280000000001
 10
-83.75
 20
533.088
 10
-86.60600000000001
 20
533.088
 10
-86.60600000000001
 20
538.8
 10
-58.034
 20
538.8
 10
-52.322
 20
533.088
 10
-52.322
 20
515.944
  0
LWPOLYLINE
  5
6A
330
1F
100
AcDbEntity
  8
text2
100
AcDbPolyline
 90
       10
 70
     1
 43
0.0
 10
-34.408
 20
1645.487
 10
-30.121
 20
1645.487
 10
-30.121
 20
1641.2
 10
-42.979
 20
1641.2
 10
-42.979
 20
1645.487
 10
-38.692
 20
1645.487
 10
-38.692
 20
1666.913
 10
-42.979
 20
1666.913
 10
-38.692
 20
1671.2
 10
-34.408
 20
1671.2
  0
LWPOLYLINE
  5
6B
330
1F
100
AcDbEntity
  8
text2
100
AcDbPolyline
 90
       25
 70
     1
 43
0.0
 10
-22.85
 20
1591.6
 10
-22.05
 20
1586.5
 10
-22.85
 20
1581.4
 10
-25.25
 20
1576.7
 10
-28.85
 20
1573.1
 10
-33.55
 20
1570.7
 10
-37.95
 20
1570.0
 10
-102.75
 20
1570.0
 10
-102.75
 20
1647.4
 10
-102.05
 20
1651.8
 10
-99.65
 20
1656.5
 10
-96.05
 20
1660.1
 10
-91.35000000000001
 20
1662.5
 10
-86.25
 20
1663.3
 10
-81.15
 20
1662.5
 10
-76.45
 20
1660.1
 10
-72.85000000000001
 20
1656.5
 10
-70.45
 20
1651.8
 10
-69.75
 20
1647.4
 10
-69.75
 20
1638.2
 10
-47.25
 20
1603.0
 10
-37.95
 20
1603.0
 10
-33.55
 20
1602.3
 10
-28.85
 20
1599.9
 10
-25.25
 20
1596.3
  0
LWPOLYLINE
  5
6C
330
1F
100
AcDbEntity
  8
text2
100
AcDbPolyline
 90
       11
 70
     1
 43
0.0
 10
-25.18
 20
1744.0
 10
-18.04
 20
1744.0
 10
-18.04
 20
1736.855
 10
-25.18
 20
1736.855
 10
-25.18
 20
1719.0
 10
-32.325
 20
1719.0
 10
-32.325
 20
1736.855
 10
-53.75
 20
1736.855
 10
-53.75
 20
1744.0
 10
-32.325
 20
1769.0
 10
-25.18
 20
1769.0
  0
LWPOLYLINE
  5
6D
330
1F
100
AcDbEntity
  8
text2
100
AcDbPolyline
 90
        8
 70
     1
 43
0.0
 10
381.96
 20
65.0
 10
381.96
 20
115.0
 10
410.53
 20
115.0
 10
417.67
 20
107.855
 10
417.67
 20
93.57000000000001
 10
410.53
 20
86.43
 10
389.1
 20
86.43
 10
389.1
 20
65.0
  0
LWPOLYLINE
  5
6E
330
1F
100
AcDbEntity
  8
text2
100
AcDbPolyline
 90
       25
 70
     1
 43
0.0
 10
460.53
 20
115.0
 10
467.67
 20
107.855
 10
467.67
 20
97.145
 10
460.53
 20
90.0
 10
467.67
 20
82.855
 10
467.67
 20
72.145
 10
460.53
 20
65.0
 10
439.1
 20
65.0
 10
431.96
 20
72.145
 10
439.1
 20
75.715
 10
442.67
 20
72.145
 10
456.96
 20
72.145
 10
460.53
 20
75.715
 10
460.53
 20
79.285
 10
453.385
 20
86.43
 10
446.245
 20
86.43
 10
446.245
 20
93.57000000000001
 10
453.385
 20
93.57000000000001
 10
460.53
 20
100.715
 10
460.53
 20
104.285
 10
456.96
 20
107.855
 10
442.67
 20
107.855
 10
439.1
 20
104.285
 10
431.96
 20
107.855
 10
439.1
 20
115.0
  0
LWPOLYLINE
  5
6F
330
1F
100
AcDbEntity
  8
text2
100
AcDbPolyline
 90
       10
 70
     1
 43
0.0
 10
486.6
 20
236.287
 10
490.887
 20
236.287
 10
490.887
 20
232.0
 10
478.029
 20
232.0
 10
478.029
 20
236.287
 10
482.316
 20
236.287
 10
482.316
 20
257.713
 10
478.029
 20
257.713
 10
482.316
 20
262.0
 10
486.6
 20
262.0
  0
LWPOLYLINE
  5
70
330
1F
100
AcDbEntity
  8
text2
100
AcDbPolyline
 90
        4
 70
     1
 43
0.0
 10
523.75
 20
66.0
 10
523.75
 20
161.0
 10
768.75
 20
161.0
 10
768.75
 20
66.0
  0
LWPOLYLINE
  5
71
330
1F
100
AcDbEntity
  8
text2
100
AcDbPolyline
 90
        4
 70
     1
 43
0.0
 10
523.75
 20
2839.0
 10
523.75
 20
2934.0
 10
768.75
 20
2934.0
 10
768.75
 20
2839.0
  0
LWPOLYLINE
  5
72
330
1F
100
AcDbEntity
  8
text2
100
AcDbPolyline
 90
        4
 70
     1
 43
0.0
 10
823.75
 20
66.0
 10
823.75
 20
161.0
 10
918.75
 20
161.0
 10
918.75
 20
66.0
  0
LWPOLYLINE
  5
73
330
1F
100
AcDbEntity
  8
text2
100
AcDbPolyline
 90
        4
 70
     1
 43
0.0
 10
823.75
 20
2839.0
 10
823.75
 20
2934.0
 10
918.75
 20
2934.0
 10
918.75
 20
2839.0
  0
LWPOLYLINE
  5
74
330
1F
100
AcDbEntity
  8
text2
100
AcDbPolyline
 90
        4
 70
     1
 43
0.0
 10
973.75
 20
66.0
 10
973.75
 20
161.0
 10
1068.75
 20
161.0
 10
1068.75
 20
66.0
  0
LWPOLYLINE
  5
75
330
1F
100
AcDbEntity
  8
text2
100
AcDbPolyline
 90
        4
 70
     1
 43
0.0
 10
973.75
 20
2839.0
 10
973.75
 20
2934.0
 10
1068.75
 20
2934.0
 10
1068.75
 20
2839.0
  0
LWPOLYLINE
  5
76
330
1F
100
AcDbEntity
  8
text2
100
AcDbPolyline
 90
        4
 70
     1
 43
0.0
 10
1123.75
 20
66.0
 10
1123.75
 20
161.0
 10
1218.75
 20
161.0
 10
1218.75
 20
66.0
  0
LWPOLYLINE
  5
77
330
1F
100
AcDbEntity
  8
text2
100
AcDbPolyline
 90
        4
 70
     1
 43
0.0
 10
1123.75
 20
2839.0
 10
1123.75
 20
2934.0
 10
1218.75
 20
2934.0
 10
1218.75
 20
2839.0
  0
LWPOLYLINE
  5
78
330
1F
100
AcDbEntity
  8
text2
100
AcDbPolyline
 90
        4
 70
     1
 43
0.0
 10
1273.75
 20
66.0
 10
1273.75
 20
161.0
 10
1368.75
 20
161.0
 10
1368.75
 20
66.0
  0
LWPOLYLINE
  5
79
330
1F
100
AcDbEntity
  8
text2
100
AcDbPolyline
 90
        4
 70
     1
 43
0.0
 10
1273.75
 20
2839.0
 10
1273.75
 20
2934.0
 10
1368.75
 20
2934.0
 10
1368.75
 20
2839.0
  0
LWPOLYLINE
  5
7A
330
1F
100
AcDbEntity
  8
text2
100
AcDbPolyline
 90
        4
 70
     1
 43
0.0
 10
1423.75
 20
66.0
 10
1423.75
 20
161.0
 10
1518.75
 20
161.0
 10
1518.75
 20
66.0
  0
LWPOLYLINE
  5
7B
330
1F
100
AcDbEntity
  8
text2
100
AcDbPolyline
 90
        4
 70
     1
 43
0.0
 10
1423.75
 20
2839.0
 10
1423.75
 20
2934.0
 10
1518.75
 20
2934.0
 10
1518.75
 20
2839.0
  0
LWPOLYLINE
  5
7C
330
1F
100
AcDbEntity
  8
text2
100
AcDbPolyline
 90
        4
 70
     1
 43
0.0
 10
1573.75
 20
66.0
 10
1573.75
 20
261.0
 10
1668.75
 20
261.0
 10
1668.75
 20
66.0
  0
LWPOLYLINE
  5
7D
330
1F
100
AcDbEntity
  8
text2
100
AcDbPolyline
 90
        4
 70
     1
 43
0.0
 10
1573.75
 20
2839.0
 10
1573.75
 20
2934.0
 10
1668.75
 20
2934.0
 10
1668.75
 20
2839.0
  0
LWPOLYLINE
  5
7E
330
1F
100
AcDbEntity
  8
text2
100
AcDbPolyline
 90
        4
 70
     1
 43
0.0
 10
1723.75
 20
66.0
 10
1723.75
 20
261.0
 10
1818.75
 20
261.0
 10
1818.75
 20
66.0
  0
LWPOLYLINE
  5
7F
330
1F
100
AcDbEntity
  8
text2
100
AcDbPolyline
 90
        4
 70
     1
 43
0.0
 10
1723.75
 20
2839.0
 10
1723.75
 20
2934.0
 10
1818.75
 20
2934.0
 10
1818.75
 20
2839.0
  0
LWPOLYLINE
  5
80
330
1F
100
AcDbEntity
  8
text2
100
AcDbPolyline
 90
        4
 70
     1
 43
0.0
 10
1872.25
 20
2839.0
 10
1872.25
 20
2934.0
 10
1967.25
 20
2934.0
 10
1967.25
 20
2839.0
  0
LWPOLYLINE
  5
81
330
1F
100
AcDbEntity
  8
text2
100
AcDbPolyline
 90
        4
 70
     1
 43
0.0
 10
1873.75
 20
66.0
 10
1873.75
 20
261.0
 10
1968.75
 20
261.0
 10
1968.75
 20
66.0
  0
LWPOLYLINE
  5
82
330
1F
100
AcDbEntity
  8
text2
100
AcDbPolyline
 90
        4
 70
     1
 43
0.0
 10
2022.25
 20
2839.0
 10
2022.25
 20
2934.0
 10
2117.25
 20
2934.0
 10
2117.25
 20
2839.0
  0
LWPOLYLINE
  5
83
330
1F
100
AcDbEntity
  8
text2
100
AcDbPolyline
 90
        4
 70
     1
 43
0.0
 10
2023.75
 20
66.0
 10
2023.75
 20
261.0
 10
2118.75
 20
261.0
 10
2118.75
 20
66.0
  0
LWPOLYLINE
  5
84
330
1F
100
AcDbEntity
  8
text2
100
AcDbPolyline
 90
       10
 70
     1
 43
0.0
 10
2182.313
 20
2843.787
 10
2186.6
 20
2843.787
 10
2186.6
 20
2839.5
 10
2173.742
 20
2839.5
 10
2173.742
 20
2843.787
 10
2178.029
 20
2843.787
 10
2178.029
 20
2865.213
 10
2173.742
 20
2865.213
 10
2178.029
 20
2869.5
 10
2182.313
 20
2869.5
  0
LWPOLYLINE
  5
85
330
1F
100
AcDbEntity
  8
text2
100
AcDbPolyline
 90
        8
 70
     1
 43
0.0
 10
2637.25
 20
1483.5
 10
2637.25
 20
1516.5
 10
2646.45
 20
1516.5
 10
2676.45
 20
1529.0
 10
2745.25
 20
1529.0
 10
2745.25
 20
1471.0
 10
2676.45
 20
1471.0
 10
2646.45
 20
1483.5
  0
LWPOLYLINE
  5
86
330
1F
100
AcDbEntity
  8
text2
100
AcDbPolyline
 90
        8
 70
     1
 43
0.0
 10
2660.54
 20
1231.0
 10
2660.54
 20
1281.0
 10
2689.11
 20
1281.0
 10
2696.25
 20
1273.855
 10
2696.25
 20
1259.57
 10
2689.11
 20
1252.43
 10
2667.68
 20
1252.43
 10
2667.68
 20
1231.0
  0
LWPOLYLINE
  5
87
330
1F
100
AcDbEntity
  8
text2
100
AcDbPolyline
 90
       10
 70
     1
 43
0.0
 10
2688.134
 20
1319.887
 10
2692.421
 20
1319.887
 10
2692.421
 20
1315.6
 10
2679.563
 20
1315.6
 10
2679.563
 20
1319.887
 10
2683.85
 20
1319.887
 10
2683.85
 20
1341.313
 10
2679.563
 20
1341.313
 10
2683.85
 20
1345.6
 10
2688.134
 20
1345.6
  0
LWPOLYLINE
  5
88
330
1F
100
AcDbEntity
  8
text2
100
AcDbPolyline
 90
       15
 70
     1
 43
0.0
 10
2710.54
 20
1231.0
 10
2710.54
 20
1241.715
 10
2739.11
 20
1263.145
 10
2739.11
 20
1270.285
 10
2735.54
 20
1273.855
 10
2721.25
 20
1273.855
 10
2717.68
 20
1270.285
 10
2710.54
 20
1273.855
 10
2717.68
 20
1281.0
 10
2739.11
 20
1281.0
 10
2746.25
 20
1273.855
 10
2746.25
 20
1259.57
 10
2717.68
 20
1238.145
 10
2746.25
 20
1238.145
 10
2746.25
 20
1231.0
  0
LWPOLYLINE
  5
89
330
1F
100
AcDbEntity
  8
text2
100
AcDbPolyline
 90
       25
 70
     1
 43
0.0
 10
2712.25
 20
1352.6
 10
2712.25
 20
1361.8
 10
2689.75
 20
1397.0
 10
2680.45
 20
1397.0
 10
2676.05
 20
1397.7
 10
2671.35
 20
1400.1
 10
2667.75
 20
1403.7
 10
2665.35
 20
1408.4
 10
2664.55
 20
1413.5
 10
2665.35
 20
1418.6
 10
2667.75
 20
1423.3
 10
2671.35
 20
1426.9
 10
2676.05
 20
1429.3
 10
2680.45
 20
1430.0
 10
2745.25
 20
1430.0
 10
2745.25
 20
1352.6
 10
2744.55
 20
1348.2
 10
2742.15
 20
1343.5
 10
2738.55
 20
1339.9
 10
2733.85
 20
1337.5
 10
2728.75
 20
1336.7
 10
2723.65
 20
1337.5
 10
2718.95
 20
1339.9
 10
2715.35
 20
1343.5
 10
2712.95
 20
1348.2
  0
LWPOLYLINE
  5
8A
330
1F
100
AcDbEntity
  8
text2
100
AcDbPolyline
 90
       25
 70
     1
 43
0.0
 10
2744.55
 20
1651.8
 10
2745.25
 20
1647.4
 10
2745.25
 20
1570.0
 10
2680.45
 20
1570.0
 10
2676.05
 20
1570.7
 10
2671.35
 20
1573.1
 10
2667.75
 20
1576.7
 10
2665.35
 20
1581.4
 10
2664.55
 20
1586.5
 10
2665.35
 20
1591.6
 10
2667.75
 20
1596.3
 10
2671.35
 20
1599.9
 10
2676.05
 20
1602.3
 10
2680.45
 20
1603.0
 10
2689.75
 20
1603.0
 10
2712.25
 20
1638.2
 10
2712.25
 20
1647.4
 10
2712.95
 20
1651.8
 10
2715.35
 20
1656.5
 10
2718.95
 20
1660.1
 10
2723.65
 20
1662.5
 10
2728.75
 20
1663.3
 10
2733.85
 20
1662.5
 10
2738.55
 20
1660.1
 10
2742.15
 20
1656.5
  0
LWPOLYLINE
  5
8B
330
1F
100
AcDbEntity
  8
text2
100
AcDbPolyline
 90
        8
 70
     1
 43
0.0
 10
381.96
 20
2885.0
 10
381.96
 20
2935.0
 10
410.53
 20
2935.0
 10
417.67
 20
2927.855
 10
417.67
 20
2913.57
 10
410.53
 20
2906.43
 10
389.1
 20
2906.43
 10
389.1
 20
2885.0
  0
LWPOLYLINE
  5
8C
330
1F
100
AcDbEntity
  8
text2
100
AcDbPolyline
 90
       10
 70
     1
 43
0.0
 10
453.385
 20
2892.145
 10
460.53
 20
2892.145
 10
460.53
 20
2885.0
 10
439.1
 20
2885.0
 10
439.1
 20
2892.145
 10
446.245
 20
2892.145
 10
446.245
 20
2927.855
 10
439.1
 20
2927.855
 10
446.245
 20
2935.0
 10
453.385
 20
2935.0
  0
ENDSEC
  0
SECTION
  2
OBJECTS
  0
DICTIONARY
  5
C
330
0
100
AcDbDictionary
281
     1
  3
ACAD_GROUP
350
D
  3
ACAD_LAYOUT
350
1A
  3
ACAD_MLEADERSTYLE
350
92
  3
ACAD_MLINESTYLE
350
17
  3
ACAD_PLOTSETTINGS
350
19
  3
ACAD_PLOTSTYLENAME
350
E
  3
ACAD_SCALELIST
350
3B
  3
ACAD_TABLESTYLE
350
91
  3
ACAD_VISUALSTYLE
350
2A
  0
DICTIONARY
  5
D
102
{ACAD_REACTORS
330
C
102
}
330
C
100
AcDbDictionary
281
     1
  0
DICTIONARY
  5
1A
102
{ACAD_REACTORS
330
C
102
}
330
C
100
AcDbDictionary
281
     1
  3
Layout1
350
1E
  3
Layout2
350
26
  3
Model
350
22
  0
DICTIONARY
  5
92
102
{ACAD_REACTORS
330
C
102
}
330
C
100
AcDbDictionary
281
     1
  0
DICTIONARY
  5
17
102
{ACAD_REACTORS
330
C
102
}
330
C
100
AcDbDictionary
281
     1
  3
Standard
350
18
  0
DICTIONARY
  5
19
102
{ACAD_REACTORS
330
C
102
}
330
C
100
AcDbDictionary
281
     1
  0
ACDBDICTIONARYWDFLT
  5
E
102
{ACAD_REACTORS
330
C
102
}
330
C
100
AcDbDictionary
281
     1
  3
Normal
350
F
100
AcDbDictionaryWithDefault
340
F
  0
DICTIONARY
  5
3B
102
{ACAD_REACTORS
330
C
102
}
330
C
100
AcDbDictionary
281
     1
  3
A0
350
3C
  3
A1
350
3D
  3
A2
350
3E
  3
A3
350
3F
  3
A4
350
40
  3
A5
350
41
  3
A6
350
42
  3
A7
350
43
  3
A8
350
44
  3
A9
350
45
  3
B0
350
46
  3
B1
350
47
  3
B2
350
48
  3
B3
350
49
  3
B4
350
4A
  3
B5
350
4B
  3
B6
350
4C
  3
B7
350
4D
  3
B8
350
4E
  3
B9
350
4F
  3
C0
350
50
  3
C1
350
51
  3
C2
350
52
  3
C3
350
53
  3
C4
350
54
  3
C5
350
55
  3
C6
350
56
  3
C7
350
57
  3
C8
350
58
  3
C9
350
59
  3
D0
350
5A
  3
D1
350
5B
  3
D2
350
5C
  0
DICTIONARY
  5
91
102
{ACAD_REACTORS
330
C
102
}
330
C
100
AcDbDictionary
281
     1
  0
DICTIONARY
  5
2A
102
{ACAD_REACTORS
330
C
102
}
330
C
100
AcDbDictionary
281
     1
  3
2dWireframe
350
2F
  3
3D Hidden
350
31
  3
3dWireframe
350
30
  3
Basic
350
32
  3
Brighten
350
36
  3
ColorChange
350
3A
  3
Conceptual
350
34
  3
Dim
350
35
  3
Facepattern
350
39
  3
Flat
350
2B
  3
FlatWithEdges
350
2C
  3
Gouraud
350
2D
  3
GouraudWithEdges
350
2E
  3
Linepattern
350
38
  3
Realistic
350
33
  3
Thicken
350
37
  0
LAYOUT
  5
1E
102
{ACAD_REACTORS
330
1A
102
}
330
1A
100
AcDbPlotSettings
  1

  2
none_device
  4

  6

 40
0.0
 41
0.0
 42
0.0
 43
0.0
 44
0.0
 45
0.0
 46
0.0
 47
0.0
 48
0.0
 49
0.0
140
0.0
141
0.0
142
1.0
143
1.0
 70
   688
 72
     0
 73
     0
 74
     5
  7

 75
    16
 76
     0
 77
     2
 78
   300
147
1.0
148
0.0
149
0.0
100
AcDbLayout
  1
Layout1
 70
     1
 71
     1
 10
0.0
 20
0.0
 11
12.0
 21
9.0
 12
0.0
 22
0.0
 32
0.0
 14
1.000000000000000E+20
 24
1.000000000000000E+20
 34
1.000000000000000E+20
 15
-1.000000000000000E+20
 25
-1.000000000000000E+20
 35
-1.000000000000000E+20
146
0.0
 13
0.0
 23
0.0
 33
0.0
 16
1.0
 26
0.0
 36
0.0
 17
0.0
 27
1.0
 37
0.0
 76
     0
330
1B
  0
LAYOUT
  5
26
102
{ACAD_REACTORS
330
1A
102
}
330
1A
100
AcDbPlotSettings
  1

  2
none_device
  4

  6

 40
0.0
 41
0.0
 42
0.0
 43
0.0
 44
0.0
 45
0.0
 46
0.0
 47
0.0
 48
0.0
 49
0.0
140
0.0
141
0.0
142
1.0
143
1.0
 70
   688
 72
     0
 73
     0
 74
     5
  7

 75
    16
 76
     0
 77
     2
 78
   300
147
1.0
148
0.0
149
0.0
100
AcDbLayout
  1
Layout2
 70
     1
 71
     2
 10
0.0
 20
0.0
 11
0.0
 21
0.0
 12
0.0
 22
0.0
 32
0.0
 14
0.0
 24
0.0
 34
0.0
 15
0.0
 25
0.0
 35
0.0
146
0.0
 13
0.0
 23
0.0
 33
0.0
 16
1.0
 26
0.0
 36
0.0
 17
0.0
 27
1.0
 37
0.0
 76
     0
330
23
  0
LAYOUT
  5
22
102
{ACAD_REACTORS
330
1A
102
}
330
1A
100
AcDbPlotSettings
  1

  2
none_device
  4

  6

 40
0.0
 41
0.0
 42
0.0
 43
0.0
 44
0.0
 45
0.0
 46
0.0
 47
0.0
 48
0.0
 49
0.0
140
0.0
141
0.0
142
1.0
143
1.0
 70
  1712
 72
     0
 73
     0
 74
     0
  7

 75
     0
 76
     0
 77
     2
 78
   300
147
1.0
148
0.0
149
0.0
100
AcDbLayout
  1
Model
 70
     1
 71
     0
 10
0.0
 20
0.0
 11
12.0
 21
9.0
 12
0.0
 22
0.0
 32
0.0
 14
1.000000000000000E+20
 24
1.000000000000000E+20
 34
1.000000000000000E+20
 15
-1.000000000000000E+20
 25
-1.000000000000000E+20
 35
-1.000000000000000E+20
146
0.0
 13
0.0
 23
0.0
 33
0.0
 16
1.0
 26
0.0
 36
0.0
 17
0.0
 27
1.0
 37
0.0
 76
     0
330
1F
331
29
  0
MLINESTYLE
  5
18
102
{ACAD_REACTORS
330
17
102
}
330
17
100
AcDbMlineStyle
  2
Standard
 70
     0
  3

 62
   256
 51
90.0
 52
90.0
 71
     2
 49
0.5
 62
   256
  6
BYLAYER
 49
-0.5
 62
   256
  6
BYLAYER
  0
ACDBPLACEHOLDER
  5
F
102
{ACAD_REACTORS
330
E
102
}
330
E
  0
SCALE
  5
3C
102
{ACAD_REACTORS
330
3B
102
}
330
3B
100
AcDbScale
 70
     0
300
1:1
140
1.0
141
1.0
290
     1
  0
SCALE
  5
3D
102
{ACAD_REACTORS
330
3B
102
}
330
3B
100
AcDbScale
 70
     0
300
1:2
140
1.0
141
2.0
290
     0
  0
SCALE
  5
3E
102
{ACAD_REACTORS
330
3B
102
}
330
3B
100
AcDbScale
 70
     0
300
1:4
140
1.0
141
4.0
290
     0
  0
SCALE
  5
3F
102
{ACAD_REACTORS
330
3B
102
}
330
3B
100
AcDbScale
 70
     0
300
1:5
140
1.0
141
5.0
290
     0
  0
SCALE
  5
40
102
{ACAD_REACTORS
330
3B
102
}
330
3B
100
AcDbScale
 70
     0
300
1:8
140
1.0
141
8.0
290
     0
  0
SCALE
  5
41
102
{ACAD_REACTORS
330
3B
102
}
330
3B
100
AcDbScale
 70
     0
300
1:10
140
1.0
141
10.0
290
     0
  0
SCALE
  5
42
102
{ACAD_REACTORS
330
3B
102
}
330
3B
100
AcDbScale
 70
     0
300
1:16
140
1.0
141
16.0
290
     0
  0
SCALE
  5
43
102
{ACAD_REACTORS
330
3B
102
}
330
3B
100
AcDbScale
 70
     0
300
1:20
140
1.0
141
20.0
290
     0
  0
SCALE
  5
44
102
{ACAD_REACTORS
330
3B
102
}
330
3B
100
AcDbScale
 70
     0
300
1:30
140
1.0
141
30.0
290
     0
  0
SCALE
  5
45
102
{ACAD_REACTORS
330
3B
102
}
330
3B
100
AcDbScale
 70
     0
300
1:40
140
1.0
141
40.0
290
     0
  0
SCALE
  5
46
102
{ACAD_REACTORS
330
3B
102
}
330
3B
100
AcDbScale
 70
     0
300
1:50
140
1.0
141
50.0
290
     0
  0
SCALE
  5
47
102
{ACAD_REACTORS
330
3B
102
}
330
3B
100
AcDbScale
 70
     0
300
1:100
140
1.0
141
100.0
290
     0
  0
SCALE
  5
48
102
{ACAD_REACTORS
330
3B
102
}
330
3B
100
AcDbScale
 70
     0
300
2:1
140
2.0
141
1.0
290
     0
  0
SCALE
  5
49
102
{ACAD_REACTORS
330
3B
102
}
330
3B
100
AcDbScale
 70
     0
300
4:1
140
4.0
141
1.0
290
     0
  0
SCALE
  5
4A
102
{ACAD_REACTORS
330
3B
102
}
330
3B
100
AcDbScale
 70
     0
300
8:1
140
8.0
141
1.0
290
     0
  0
SCALE
  5
4B
102
{ACAD_REACTORS
330
3B
102
}
330
3B
100
AcDbScale
 70
     0
300
10:1
140
10.0
141
1.0
290
     0
  0
SCALE
  5
4C
102
{ACAD_REACTORS
330
3B
102
}
330
3B
100
AcDbScale
 70
     0
300
100:1
140
100.0
141
1.0
290
     0
  0
SCALE
  5
4D
102
{ACAD_REACTORS
330
3B
102
}
330
3B
100
AcDbScale
 70
     0
300
1/128" = 1'-0"
140
0.0078125
141
12.0
290
     0
  0
SCALE
  5
4E
102
{ACAD_REACTORS
330
3B
102
}
330
3B
100
AcDbScale
 70
     0
300
1/64" = 1'-0"
140
0.015625
141
12.0
290
     0
  0
SCALE
  5
4F
102
{ACAD_REACTORS
330
3B
102
}
330
3B
100
AcDbScale
 70
     0
300
1/32" = 1'-0"
140
0.03125
141
12.0
290
     0
  0
SCALE
  5
50
102
{ACAD_REACTORS
330
3B
102
}
330
3B
100
AcDbScale
 70
     0
300
1/16" = 1'-0"
140
0.0625
141
12.0
290
     0
  0
SCALE
  5
51
102
{ACAD_REACTORS
330
3B
102
}
330
3B
100
AcDbScale
 70
     0
300
3/32" = 1'-0"
140
0.09375
141
12.0
290
     0
  0
SCALE
  5
52
102
{ACAD_REACTORS
330
3B
102
}
330
3B
100
AcDbScale
 70
     0
300
1/8" = 1'-0"
140
0.125
141
12.0
290
     0
  0
SCALE
  5
53
102
{ACAD_REACTORS
330
3B
102
}
330
3B
100
AcDbScale
 70
     0
300
3/16" = 1'-0"
140
0.1875
141
12.0
290
     0
  0
SCALE
  5
54
102
{ACAD_REACTORS
330
3B
102
}
330
3B
100
AcDbScale
 70
     0
300
1/4" = 1'-0"
140
0.25
141
12.0
290
     0
  0
SCALE
  5
55
102
{ACAD_REACTORS
330
3B
102
}
330
3B
100
AcDbScale
 70
     0
300
3/8" = 1'-0"
140
0.375
141
12.0
290
     0
  0
SCALE
  5
56
102
{ACAD_REACTORS
330
3B
102
}
330
3B
100
AcDbScale
 70
     0
300
1/2" = 1'-0"
140
0.5
141
12.0
290
     0
  0
SCALE
  5
57
102
{ACAD_REACTORS
330
3B
102
}
330
3B
100
AcDbScale
 70
     0
300
3/4" = 1'-0"
140
0.75
141
12.0
290
     0
  0
SCALE
  5
58
102
{ACAD_REACTORS
330
3B
102
}
330
3B
100
AcDbScale
 70
     0
300
1" = 1'-0"
140
1.0
141
12.0
290
     0
  0
SCALE
  5
59
102
{ACAD_REACTORS
330
3B
102
}
330
3B
100
AcDbScale
 70
     0
300
1-1/2" = 1'-0"
140
1.5
141
12.0
290
     0
  0
SCALE
  5
5A
102
{ACAD_REACTORS
330
3B
102
}
330
3B
100
AcDbScale
 70
     0
300
3" = 1'-0"
140
3.0
141
12.0
290
     0
  0
SCALE
  5
5B
102
{ACAD_REACTORS
330
3B
102
}
330
3B
100
AcDbScale
 70
     0
300
6" = 1'-0"
140
6.0
141
12.0
290
     0
  0
SCALE
  5
5C
102
{ACAD_REACTORS
330
3B
102
}
330
3B
100
AcDbScale
 70
     0
300
1'-0" = 1'-0"
140
12.0
141
12.0
290
     0
  0
VISUALSTYLE
  5
2F
102
{ACAD_REACTORS
330
2A
102
}
330
2A
100
AcDbVisualStyle
  2
2dWireframe
 70
     4
 71
     0
 72
     2
 73
     0
 90
        0
 40
-0.6
 41
-30.0
 62
     5
 63
     7
421
 16777215
 74
     1
 91
        4
 64
     7
 65
   257
 75
     1
175
     1
 42
1.0
 92
        0
 66
   257
 43
1.0
 76
     1
 77
     6
 78
     2
 67
     7
 79
     5
170
     0
171
     0
290
     0
174
     0
 93
        1
 44
0.0
173
     0
291
     0
 45
0.0
1001
ACAD
1000
AcDbSavedByObjectVersion
1070
     0
  0
VISUALSTYLE
  5
31
102
{ACAD_REACTORS
330
2A
102
}
330
2A
100
AcDbVisualStyle
  2
3D Hidden
 70
     6
 71
     1
 72
     2
 73
     2
 90
        0
 40
-0.6
 41
-30.0
 62
     5
 63
     7
421
 16777215
 74
     2
 91
        2
 64
     7
 65
   257
 75
     2
175
     1
 42
40.0
 92
        0
 66
   257
 43
1.0
 76
     1
 77
     6
 78
     2
 67
     7
 79
     3
170
     0
171
     0
290
     0
174
     0
 93
        1
 44
0.0
173
     0
291
     0
 45
0.0
1001
ACAD
1000
AcDbSavedByObjectVersion
1070
     0
  0
VISUALSTYLE
  5
30
102
{ACAD_REACTORS
330
2A
102
}
330
2A
100
AcDbVisualStyle
  2
3dWireframe
 70
     5
 71
     0
 72
     2
 73
     0
 90
        0
 40
-0.6
 41
-30.0
 62
     5
 63
     7
421
 16777215
 74
     1
 91
        4
 64
     7
 65
   257
 75
     1
175
     1
 42
1.0
 92
        0
 66
   257
 43
1.0
 76
     1
 77
     6
 78
     2
 67
     7
 79
     5
170
     0
171
     0
290
     0
174
     0
 93
        1
 44
0.0
173
     0
291
     0
 45
0.0
1001
ACAD
1000
AcDbSavedByObjectVersion
1070
     0
  0
VISUALSTYLE
  5
32
102
{ACAD_REACTORS
330
2A
102
}
330
2A
100
AcDbVisualStyle
  2
Basic
 70
     7
 71
     1
 72
     0
 73
     1
 90
        0
 40
-0.6
 41
-30.0
 62
     5
 63
     7
421
 16777215
 74
     0
 91
        4
 64
     7
 65
   257
 75
     1
175
     1
 42
1.0
 92
        8
 66
     7
 43
1.0
 76
     1
 77
     6
 78
     2
 67
     7
 79
     5
170
     0
171
     0
290
     0
174
     0
 93
        1
 44
0.0
173
     0
291
     1
 45
0.0
1001
ACAD
1000
AcDbSavedByObjectVersion
1070
     0
  0
VISUALSTYLE
  5
36
102
{ACAD_REACTORS
330
2A
102
}
330
2A
100
AcDbVisualStyle
  2
Brighten
 70
    12
 71
     2
 72
     2
 73
     0
 90
        0
 40
-0.6
 41
-30.0
 62
     5
 63
     7
421
 16777215
 74
     1
 91
        4
 64
     7
 65
   257
 75
     1
175
     1
 42
1.0
 92
        8
 66
     7
 43
1.0
 76
     1
 77
     6
 78
     2
 67
     7
 79
     5
170
     0
171
     0
290
     0
174
     0
 93
        1
 44
50.0
173
     0
291
     1
 45
0.0
1001
ACAD
1000
AcDbSavedByObjectVersion
1070
     0
  0
VISUALSTYLE
  5
3A
102
{ACAD_REACTORS
330
2A
102
}
330
2A
100
AcDbVisualStyle
  2
ColorChange
 70
    16
 71
     2
 72
     2
 73
     3
 90
        0
 40
-0.6
 41
-30.0
 62
     5
 63
     8
421
  8421504
 74
     1
 91
        4
 64
     7
 65
   257
 75
     1
175
     1
 42
1.0
 92
        8
 66
     8
424
  8421504
 43
1.0
 76
     1
 77
     6
 78
     2
 67
     7
 79
     5
170
     0
171
     0
290
     0
174
     0
 93
        1
 44
0.0
173
     0
291
     1
 45
0.0
1001
ACAD
1000
AcDbSavedByObjectVersion
1070
     0
  0
VISUALSTYLE
  5
34
102
{ACAD_REACTORS
330
2A
102
}
330
2A
100
AcDbVisualStyle
  2
Conceptual
 70
     9
 71
     3
 72
     2
 73
     0
 90
        0
 40
-0.6
 41
-30.0
 62
     5
 63
     7
421
 16777215
 74
     2
 91
        2
 64
     7
 65
   257
 75
     1
175
     1
 42
40.0
 92
        8
 66
     7
 43
1.0
 76
     1
 77
     6
 78
     2
 67
     7
 79
     3
170
     0
171
     0
290
     0
174
     0
 93
        1
 44
0.0
173
     0
291
     0
 45
0.0
1001
ACAD
1000
AcDbSavedByObjectVersion
1070
     0
  0
VISUALSTYLE
  5
35
102
{ACAD_REACTORS
330
2A
102
}
330
2A
100
AcDbVisualStyle
  2
Dim
 70
    11
 71
     2
 72
     2
 73
     0
 90
        0
 40
-0.6
 41
-30.0
 62
     5
 63
     7
421
 16777215
 74
     1
 91
        4
 64
     7
 65
   257
 75
     1
175
     1
 42
1.0
 92
        8
 66
     7
 43
1.0
 76
     1
 77
     6
 78
     2
 67
     7
 79
     5
170
     0
171
     0
290
     0
174
     0
 93
        1
 44
-50.0
173
     0
291
     1
 45
0.0
1001
ACAD
1000
AcDbSavedByObjectVersion
1070
     0
  0
VISUALSTYLE
  5
39
102
{ACAD_REACTORS
330
2A
102
}
330
2A
100
AcDbVisualStyle
  2
Facepattern
 70
    15
 71
     2
 72
     2
 73
     0
 90
        0
 40
-0.6
 41
-30.0
 62
     5
 63
     7
421
 16777215
 74
     1
 91
        4
 64
     7
 65
   257
 75
     1
175
     1
 42
1.0
 92
        8
 66
     7
 43
1.0
 76
     1
 77
     6
 78
     2
 67
     7
 79
     5
170
     0
171
     0
290
     0
174
     0
 93
        1
 44
0.0
173
     0
291
     1
 45
0.0
1001
ACAD
1000
AcDbSavedByObjectVersion
1070
     0
  0
VISUALSTYLE
  5
2B
102
{ACAD_REACTORS
330
2A
102
}
330
2A
100
AcDbVisualStyle
  2
Flat
 70
     0
 71
     2
 72
     1
 73
     1
 90
        2
 40
-0.6
 41
30.0
 62
     5
 63
     7
421
 16777215
 74
     0
 91
        4
 64
     7
 65
   257
 75
     1
175
     1
 42
1.0
 92
        8
 66
     7
 43
1.0
 76
     1
 77
     6
 78
     2
 67
     7
 79
     5
170
     0
171
     0
290
     0
174
     0
 93
       13
 44
0.0
173
     0
291
     1
 45
0.0
1001
ACAD
1000
AcDbSavedByObjectVersion
1070
     0
  0
VISUALSTYLE
  5
2C
102
{ACAD_REACTORS
330
2A
102
}
330
2A
100
AcDbVisualStyle
  2
FlatWithEdges
 70
     1
 71
     2
 72
     1
 73
     1
 90
        2
 40
-0.6
 41
30.0
 62
     5
 63
     7
421
 16777215
 74
     1
 91
        4
 64
     7
 65
   257
 75
     1
175
     1
 42
1.0
 92
        0
 66
   257
 43
1.0
 76
     1
 77
     6
 78
     2
 67
     7
 79
     5
170
     0
171
     0
290
     0
174
     0
 93
       13
 44
0.0
173
     0
291
     1
 45
0.0
1001
ACAD
1000
AcDbSavedByObjectVersion
1070
     0
  0
VISUALSTYLE
  5
2D
102
{ACAD_REACTORS
330
2A
102
}
330
2A
100
AcDbVisualStyle
  2
Gouraud
 70
     2
 71
     2
 72
     2
 73
     1
 90
        2
 40
-0.6
 41
30.0
 62
     5
 63
     7
421
 16777215
 74
     0
 91
        4
 64
     7
 65
   257
 75
     1
175
     1
 42
1.0
 92
        0
 66
     7
 43
1.0
 76
     1
 77
     6
 78
     2
 67
     7
 79
     5
170
     0
171
     0
290
     0
174
     0
 93
       13
 44
0.0
173
     0
291
     1
 45
0.0
1001
ACAD
1000
AcDbSavedByObjectVersion
1070
     0
  0
VISUALSTYLE
  5
2E
102
{ACAD_REACTORS
330
2A
102
}
330
2A
100
AcDbVisualStyle
  2
GouraudWithEdges
 70
     3
 71
     2
 72
     2
 73
     1
 90
        2
 40
-0.6
 41
30.0
 62
     5
 63
     7
421
 16777215
 74
     1
 91
        4
 64
     7
 65
   257
 75
     1
175
     1
 42
1.0
 92
        0
 66
   257
 43
1.0
 76
     1
 77
     6
 78
     2
 67
     7
 79
     5
170
     0
171
     0
290
     0
174
     0
 93
       13
 44
0.0
173
     0
291
     1
 45
0.0
1001
ACAD
1000
AcDbSavedByObjectVersion
1070
     0
  0
VISUALSTYLE
  5
38
102
{ACAD_REACTORS
330
2A
102
}
330
2A
100
AcDbVisualStyle
  2
Linepattern
 70
    14
 71
     2
 72
     2
 73
     0
 90
        0
 40
-0.6
 41
-30.0
 62
     5
 63
     7
421
 16777215
 74
     1
 91
        4
 64
     7
 65
   257
 75
     7
175
     7
 42
1.0
 92
        8
 66
     7
 43
1.0
 76
     1
 77
     6
 78
     2
 67
     7
 79
     5
170
     0
171
     0
290
     0
174
     0
 93
        1
 44
0.0
173
     0
291
     1
 45
0.0
1001
ACAD
1000
AcDbSavedByObjectVersion
1070
     0
  0
VISUALSTYLE
  5
33
102
{ACAD_REACTORS
330
2A
102
}
330
2A
100
AcDbVisualStyle
  2
Realistic
 70
     8
 71
     2
 72
     2
 73
     0
 90
        0
 40
-0.6
 41
-30.0
 62
     5
 63
     7
421
 16777215
 74
     1
 91
        0
 64
     7
 65
   257
 75
     1
175
     1
 42
1.0
 92
        8
 66
     8
424
  7895160
 43
1.0
 76
     1
 77
     6
 78
     2
 67
     7
 79
     5
170
     0
171
     0
290
     0
174
     0
 93
       13
 44
0.0
173
     0
291
     0
 45
0.0
1001
ACAD
1000
AcDbSavedByObjectVersion
1070
     0
  0
VISUALSTYLE
  5
37
102
{ACAD_REACTORS
330
2A
102
}
330
2A
100
AcDbVisualStyle
  2
Thicken
 70
    13
 71
     2
 72
     2
 73
     0
 90
        0
 40
-0.6
 41
-30.0
 62
     5
 63
     7
421
 16777215
 74
     1
 91
        4
 64
     7
 65
   257
 75
     1
175
     1
 42
1.0
 92
       12
 66
     7
 43
1.0
 76
     1
 77
     6
 78
     2
 67
     7
 79
     5
170
     0
171
     0
290
     0
174
     0
 93
        1
 44
0.0
173
     0
291
     1
 45
0.0
1001
ACAD
1000
AcDbSavedByObjectVersion
1070
     0
  0
ENDSEC
  0
EOF
