  0
SECTION
  2
HEADER
  9
$ACADVER
  1
AC1018
  9
$ACADMAINTVER
 70
     0
  9
$DWGCODEPAGE
  3
ANSI_1252
  9
$INSBASE
 10
0.0
 20
0.0
 30
0.0
  9
$EXTMIN
 10
1.000000000000000E+20
 20
1.000000000000000E+20
 30
1.000000000000000E+20
  9
$EXTMAX
 10
-1.000000000000000E+20
 20
-1.000000000000000E+20
 30
-1.000000000000000E+20
  9
$LIMMIN
 10
0.0
 20
0.0
  9
$LIMMAX
 10
12.0
 20
9.0
  9
$ORTHOMODE
 70
     0
  9
$REGENMODE
 70
     1
  9
$FILLMODE
 70
     1
  9
$QTEXTMODE
 70
     0
  9
$MIRRTEXT
 70
     1
  9
$LTSCALE
 40
1.0
  9
$ATTMODE
 70
     1
  9
$TEXTSIZE
 40
0.2
  9
$TRACEWID
 40
0.05
  9
$TEXTSTYLE
  7
Standard
  9
$CLAYER
  8
0
  9
$CELTYPE
  6
ByLayer
  9
$CECOLOR
 62
   256
  9
$CELTSCALE
 40
1.0
  9
$DISPSILH
 70
     0
  9
$DIMSCALE
 40
1.0
  9
$DIMASZ
 40
0.18
  9
$DIMEXO
 40
0.0625
  9
$DIMDLI
 40
0.38
  9
$DIMRND
 40
0.0
  9
$DIMDLE
 40
0.0
  9
$DIMEXE
 40
0.18
  9
$DIMTP
 40
0.0
  9
$DIMTM
 40
0.0
  9
$DIMTXT
 40
0.18
  9
$DIMCEN
 40
0.09
  9
$DIMTSZ
 40
0.0
  9
$DIMTOL
 70
     0
  9
$DIMLIM
 70
     0
  9
$DIMTIH
 70
     1
  9
$DIMTOH
 70
     1
  9
$DIMSE1
 70
     0
  9
$DIMSE2
 70
     0
  9
$DIMTAD
 70
     0
  9
$DIMZIN
 70
     0
  9
$DIMBLK
  1

  9
$DIMASO
 70
     1
  9
$DIMSHO
 70
     1
  9
$DIMPOST
  1

  9
$DIMAPOST
  1

  9
$DIMALT
 70
     0
  9
$DIMALTD
 70
     2
  9
$DIMALTF
 40
25.4
  9
$DIMLFAC
 40
1.0
  9
$DIMTOFL
 70
     0
  9
$DIMTVP
 40
0.0
  9
$DIMTIX
 70
     0
  9
$DIMSOXD
 70
     0
  9
$DIMSAH
 70
     0
  9
$DIMBLK1
  1

  9
$DIMBLK2
  1

  9
$DIMSTYLE
  2
Standard
  9
$DIMCLRD
 70
     0
  9
$DIMCLRE
 70
     0
  9
$DIMCLRT
 70
     0
  9
$DIMTFAC
 40
1.0
  9
$DIMGAP
 40
0.09
  9
$DIMJUST
 70
     0
  9
$DIMSD1
 70
     0
  9
$DIMSD2
 70
     0
  9
$DIMTOLJ
 70
     1
  9
$DIMTZIN
 70
     0
  9
$DIMALTZ
 70
     0
  9
$DIMALTTZ
 70
     0
  9
$DIMUPT
 70
     0
  9
$DIMDEC
 70
     4
  9
$DIMTDEC
 70
     4
  9
$DIMALTU
 70
     2
  9
$DIMALTTD
 70
     2
  9
$DIMTXSTY
  7
Standard
  9
$DIMAUNIT
 70
     0
  9
$DIMADEC
 70
     0
  9
$DIMALTRND
 40
0.0
  9
$DIMAZIN
 70
     0
  9
$DIMDSEP
 70
    46
  9
$DIMATFIT
 70
     3
  9
$DIMFRAC
 70
     0
  9
$DIMLDRBLK
  1

  9
$DIMLUNIT
 70
     2
  9
$DIMLWD
 70
    -2
  9
$DIMLWE
 70
    -2
  9
$DIMTMOVE
 70
     0
  9
$LUNITS
 70
     2
  9
$LUPREC
 70
     4
  9
$SKETCHINC
 40
0.1
  9
$FILLETRAD
 40
0.5
  9
$AUNITS
 70
     0
  9
$AUPREC
 70
     0
  9
$MENU
  1
.
  9
$ELEVATION
 40
0.0
  9
$PELEVATION
 40
0.0
  9
$THICKNESS
 40
0.0
  9
$LIMCHECK
 70
     0
  9
$CHAMFERA
 40
0.5
  9
$CHAMFERB
 40
0.5
  9
$CHAMFERC
 40
1.0
  9
$CHAMFERD
 40
0.0
  9
$SKPOLY
 70
     0
  9
$TDCREATE
 40
2456755.691766238
  9
$TDUCREATE
 40
2456755.608432905
  9
$TDUPDATE
 40
2456755.69176625
  9
$TDUUPDATE
 40
2456755.608432916
  9
$TDINDWG
 40
0.0000000116
  9
$TDUSRTIMER
 40
0.0000000116
  9
$USRTIMER
 70
     1
  9
$ANGBASE
 50
0.0
  9
$ANGDIR
 70
     0
  9
$PDMODE
 70
     0
  9
$PDSIZE
 40
0.0
  9
$PLINEWID
 40
0.0
  9
$SPLFRAME
 70
     0
  9
$SPLINETYPE
 70
     6
  9
$SPLINESEGS
 70
     8
  9
$HANDSEED
  5
90
  9
$SURFTAB1
 70
     6
  9
$SURFTAB2
 70
     6
  9
$SURFTYPE
 70
     6
  9
$SURFU
 70
     6
  9
$SURFV
 70
     6
  9
$UCSBASE
  2

  9
$UCSNAME
  2

  9
$UCSORG
 10
0.0
 20
0.0
 30
0.0
  9
$UCSXDIR
 10
1.0
 20
0.0
 30
0.0
  9
$UCSYDIR
 10
0.0
 20
1.0
 30
0.0
  9
$UCSORTHOREF
  2

  9
$UCSORTHOVIEW
 70
     0
  9
$UCSORGTOP
 10
0.0
 20
0.0
 30
0.0
  9
$UCSORGBOTTOM
 10
0.0
 20
0.0
 30
0.0
  9
$UCSORGLEFT
 10
0.0
 20
0.0
 30
0.0
  9
$UCSORGRIGHT
 10
0.0
 20
0.0
 30
0.0
  9
$UCSORGFRONT
 10
0.0
 20
0.0
 30
0.0
  9
$UCSORGBACK
 10
0.0
 20
0.0
 30
0.0
  9
$PUCSBASE
  2

  9
$PUCSNAME
  2

  9
$PUCSORG
 10
0.0
 20
0.0
 30
0.0
  9
$PUCSXDIR
 10
1.0
 20
0.0
 30
0.0
  9
$PUCSYDIR
 10
0.0
 20
1.0
 30
0.0
  9
$PUCSORTHOREF
  2

  9
$PUCSORTHOVIEW
 70
     0
  9
$PUCSORGTOP
 10
0.0
 20
0.0
 30
0.0
  9
$PUCSORGBOTTOM
 10
0.0
 20
0.0
 30
0.0
  9
$PUCSORGLEFT
 10
0.0
 20
0.0
 30
0.0
  9
$PUCSORGRIGHT
 10
0.0
 20
0.0
 30
0.0
  9
$PUCSORGFRONT
 10
0.0
 20
0.0
 30
0.0
  9
$PUCSORGBACK
 10
0.0
 20
0.0
 30
0.0
  9
$USERI1
 70
     0
  9
$USERI2
 70
     0
  9
$USERI3
 70
     0
  9
$USERI4
 70
     0
  9
$USERI5
 70
     0
  9
$USERR1
 40
0.0
  9
$USERR2
 40
0.0
  9
$USERR3
 40
0.0
  9
$USERR4
 40
0.0
  9
$USERR5
 40
0.0
  9
$WORLDVIEW
 70
     1
  9
$SHADEDGE
 70
     3
  9
$SHADEDIF
 70
    70
  9
$TILEMODE
 70
     1
  9
$MAXACTVP
 70
    64
  9
$PINSBASE
 10
0.0
 20
0.0
 30
0.0
  9
$PLIMCHECK
 70
     0
  9
$PEXTMIN
 10
1.000000000000000E+20
 20
1.000000000000000E+20
 30
1.000000000000000E+20
  9
$PEXTMAX
 10
-1.000000000000000E+20
 20
-1.000000000000000E+20
 30
-1.000000000000000E+20
  9
$PLIMMIN
 10
0.0
 20
0.0
  9
$PLIMMAX
 10
12.0
 20
9.0
  9
$UNITMODE
 70
     0
  9
$VISRETAIN
 70
     1
  9
$PLINEGEN
 70
     0
  9
$PSLTSCALE
 70
     1
  9
$TREEDEPTH
 70
  3020
  9
$CMLSTYLE
  2
Standard
  9
$CMLJUST
 70
     0
  9
$CMLSCALE
 40
1.0
  9
$PROXYGRAPHICS
 70
     1
  9
$MEASUREMENT
 70
     0
  9
$CELWEIGHT
370
    -1
  9
$ENDCAPS
280
     0
  9
$JOINSTYLE
280
     0
  9
$LWDISPLAY
290
     0
  9
$INSUNITS
 70
    13
  9
$HYPERLINKBASE
  1

  9
$STYLESHEET
  1

  9
$XEDIT
290
     1
  9
$CEPSNTYPE
380
     0
  9
$PSTYLEMODE
290
     1
  9
$FINGERPRINTGUID
  2
{B998121B-7F54-4910-8EB2-450CAF9BB339}
  9
$VERSIONGUID
  2
{FAEB1C32-E019-11D5-929B-00C0DF256EC4}
  9
$EXTNAMES
290
     1
  9
$PSVPSCALE
 40
0.0
  9
$OLESTARTUP
290
     0
  9
$SORTENTS
280
   127
  9
$INDEXCTL
280
     0
  9
$HIDETEXT
280
     1
  9
$XCLIPFRAME
290
     0
  9
$HALOGAP
280
     0
  9
$OBSCOLOR
 70
   257
  9
$OBSLTYPE
280
     0
  9
$INTERSECTIONDISPLAY
280
     0
  9
$INTERSECTIONCOLOR
 70
   257
  9
$DIMASSOC
280
     2
  9
$PROJECTNAME
  1

  0
ENDSEC
  0
SECTION
  2
CLASSES
  0
CLASS
  1
ACDBDICTIONARYWDFLT
  2
AcDbDictionaryWithDefault
  3
ObjectDBX Classes
 90
        0
 91
        8
280
     0
281
     0
  0
CLASS
  1
VISUALSTYLE
  2
AcDbVisualStyle
  3
ObjectDBX Classes
 90
     4095
 91
        8
280
     0
281
     0
  0
CLASS
  1
SCALE
  2
AcDbScale
  3
ObjectDBX Classes
 90
     1153
 91
        8
280
     0
281
     0
  0
ENDSEC
  0
SECTION
  2
TABLES
  0
TABLE
  2
VPORT
  5
8
330
0
100
AcDbSymbolTable
 70
     1
  0
VPORT
  5
29
330
8
100
AcDbSymbolTableRecord
100
AcDbViewportTableRecord
  2
*Active
 70
     0
 10
0.0
 20
0.0
 11
1.0
 21
1.0
 12
10.42990654205607
 22
4.5
 13
0.0
 23
0.0
 14
0.5
 24
0.5
 15
0.5
 25
0.5
 16
0.0
 26
0.0
 36
1.0
 17
0.0
 27
0.0
 37
0.0
 40
9.0
 41
1.972972972850329
 42
50.0
 43
0.0
 44
0.0
 50
0.0
 51
0.0
 71
     0
 72
   100
 73
     1
 74
     3
 75
     0
 76
     0
 77
     0
 78
     0
281
     0
 65
     1
110
0.0
120
0.0
130
0.0
111
1.0
121
0.0
131
0.0
112
0.0
122
1.0
132
0.0
 79
     0
146
0.0
  0
ENDTAB
  0
TABLE
  2
LTYPE
  5
5
330
0
100
AcDbSymbolTable
 70
     1
  0
LTYPE
  5
14
330
5
100
AcDbSymbolTableRecord
100
AcDbLinetypeTableRecord
  2
ByBlock
 70
     0
  3

 72
    65
 73
     0
 40
0.0
  0
LTYPE
  5
15
330
5
100
AcDbSymbolTableRecord
100
AcDbLinetypeTableRecord
  2
ByLayer
 70
     0
  3

 72
    65
 73
     0
 40
0.0
  0
LTYPE
  5
16
330
5
100
AcDbSymbolTableRecord
100
AcDbLinetypeTableRecord
  2
Continuous
 70
     0
  3
Solid line
 72
    65
 73
     0
 40
0.0
  0
ENDTAB
  0
TABLE
  2
LAYER
  5
2
330
0
100
AcDbSymbolTable
 70
     2
  0
LAYER
  5
10
330
2
100
AcDbSymbolTableRecord
100
AcDbLayerTableRecord
  2
0
 70
     0
 62
     7
  6
Continuous
370
    -3
390
F
  0
LAYER
  5
5E
330
2
100
AcDbSymbolTableRecord
100
AcDbLayerTableRecord
  2
text2
 70
     0
 62
    16
420
  8388608
  6
Continuous
370
    -3
390
F
  0
ENDTAB
  0
TABLE
  2
STYLE
  5
3
330
0
100
AcDbSymbolTable
 70
     1
  0
STYLE
  5
11
330
3
100
AcDbSymbolTableRecord
100
AcDbTextStyleTableRecord
  2
Standard
 70
     0
 40
0.0
 41
1.0
 50
0.0
 71
     0
 42
0.2
  3
txt
  4

  0
ENDTAB
  0
TABLE
  2
VIEW
  5
6
330
0
100
AcDbSymbolTable
 70
     0
  0
ENDTAB
  0
TABLE
  2
UCS
  5
7
330
0
100
AcDbSymbolTable
 70
     0
  0
ENDTAB
  0
TABLE
  2
APPID
  5
9
330
0
100
AcDbSymbolTable
 70
     1
  0
APPID
  5
12
330
9
100
AcDbSymbolTableRecord
100
AcDbRegAppTableRecord
  2
ACAD
 70
     0
  0
ENDTAB
  0
TABLE
  2
DIMSTYLE
  5
A
330
0
100
AcDbSymbolTable
 70
     1
100
AcDbDimStyleTable
  0
DIMSTYLE
105
27
330
A
100
AcDbSymbolTableRecord
100
AcDbDimStyleTableRecord
  2
Standard
 70
     0
340
11
  0
ENDTAB
  0
TABLE
  2
BLOCK_RECORD
  5
1
330
0
100
AcDbSymbolTable
 70
     1
  0
BLOCK_RECORD
  5
1F
330
1
100
AcDbSymbolTableRecord
100
AcDbBlockTableRecord
  2
*Model_Space
340
22
  0
BLOCK_RECORD
  5
1B
330
1
100
AcDbSymbolTableRecord
100
AcDbBlockTableRecord
  2
*Paper_Space
340
1E
  0
BLOCK_RECORD
  5
23
330
1
100
AcDbSymbolTableRecord
100
AcDbBlockTableRecord
  2
*Paper_Space0
340
26
  0
ENDTAB
  0
ENDSEC
  0
SECTION
  2
BLOCKS
  0
BLOCK
  5
20
330
1F
100
AcDbEntity
  8
0
100
AcDbBlockBegin
  2
*Model_Space
 70
     0
 10
0.0
 20
0.0
 30
0.0
  3
*Model_Space
  1

  0
ENDBLK
  5
21
330
1F
100
AcDbEntity
  8
0
100
AcDbBlockEnd
  0
BLOCK
  5
1C
330
1B
100
AcDbEntity
 67
     1
  8
0
100
AcDbBlockBegin
  2
*Paper_Space
 70
     0
 10
0.0
 20
0.0
 30
0.0
  3
*Paper_Space
  1

  0
ENDBLK
  5
1D
330
1B
100
AcDbEntity
 67
     1
  8
0
100
AcDbBlockEnd
  0
BLOCK
  5
24
330
23
100
AcDbEntity
  8
0
100
AcDbBlockBegin
  2
*Paper_Space0
 70
     0
 10
0.0
 20
0.0
 30
0.0
  3
*Paper_Space0
  1

  0
ENDBLK
  5
25
330
23
100
AcDbEntity
  8
0
100
AcDbBlockEnd
  0
ENDSEC
  0
SECTION
  2
ENTITIES
  0
LWPOLYLINE
  5
5D
330
1F
100
AcDbEntity
  8
text2
100
AcDbPolyline
 90
        8
 70
     1
 43
0.0
 10
75.288
 20
783.0
 10
75.288
 20
833.0
 10
103.858
 20
833.0
 10
110.998
 20
825.855
 10
110.998
 20
811.57
 10
103.858
 20
804.4300000000001
 10
82.428
 20
804.4300000000001
 10
82.428
 20
783.0
  0
LWPOLYLINE
  5
5F
330
1F
100
AcDbEntity
  8
text2
100
AcDbPolyline
 90
        6
 70
     1
 43
0.0
 10
82.428
 20
811.57
 10
100.288
 20
811.57
 10
103.858
 20
815.145
 10
103.858
 20
822.285
 10
100.288
 20
825.855
 10
82.428
 20
825.855
  0
LWPOLYLINE
  5
60
330
1F
100
AcDbEntity
  8
text2
100
AcDbPolyline
 90
       25
 70
     1
 43
0.0
 10
125.288
 20
790.145
 10
132.428
 20
793.715
 10
135.998
 20
790.145
 10
150.288
 20
790.145
 10
153.858
 20
793.715
 10
153.858
 20
797.285
 10
146.713
 20
804.4300000000001
 10
139.573
 20
804.4300000000001
 10
139.573
 20
811.57
 10
146.713
 20
811.57
 10
153.858
 20
818.715
 10
153.858
 20
822.285
 10
150.288
 20
825.855
 10
135.998
 20
825.855
 10
132.428
 20
822.285
 10
125.288
 20
825.855
 10
132.428
 20
833.0
 10
153.858
 20
833.0
 10
160.998
 20
825.855
 10
160.998
 20
815.145
 10
153.858
 20
808.0
 10
160.998
 20
800.855
 10
160.998
 20
790.145
 10
153.858
 20
783.0
 10
132.428
 20
783.0
  0
LWPOLYLINE
  5
61
330
1F
100
AcDbEntity
  8
text2
100
AcDbPolyline
 90
       26
 70
     1
 43
0.0
 10
1935.9
 20
531.0
 10
1935.9
 20
453.6
 10
1935.2
 20
449.2
 10
1932.8
 20
444.5
 10
1929.2
 20
440.9
 10
1924.5
 20
438.5
 10
1919.4
 20
437.7
 10
1914.3
 20
438.5
 10
1909.6
 20
440.9
 10
1906.0
 20
444.5
 10
1903.6
 20
449.2
 10
1902.9
 20
453.6
 10
1902.9
 20
462.8
 10
1880.4
 20
498.0
 10
1871.1
 20
498.0
 10
1866.7
 20
498.7
 10
1862.0
 20
501.1
 10
1858.4
 20
504.7
 10
1856.0
 20
509.4
 10
1855.2
 20
514.5
 10
1856.0
 20
519.6
 10
1858.4
 20
524.3
 10
1862.0
 20
527.9
 10
1866.7
 20
530.3
 10
1871.1
 20
531.0
 10
1887.5
 20
531.0
  0
LWPOLYLINE
  5
62
330
1F
100
AcDbEntity
  8
text2
100
AcDbPolyline
 90
       26
 70
     1
 43
0.0
 10
1887.5
 20
671.0
 10
1871.1
 20
671.0
 10
1866.7
 20
671.7
 10
1862.0
 20
674.1
 10
1858.4
 20
677.7
 10
1856.0
 20
682.4
 10
1855.2
 20
687.5
 10
1856.0
 20
692.6
 10
1858.4
 20
697.3000000000001
 10
1862.0
 20
700.9
 10
1866.7
 20
703.3000000000001
 10
1871.1
 20
704.0
 10
1880.4
 20
704.0
 10
1902.9
 20
739.2
 10
1902.9
 20
748.4
 10
1903.6
 20
752.8000000000001
 10
1906.0
 20
757.5
 10
1909.6
 20
761.1
 10
1914.3
 20
763.5
 10
1919.4
 20
764.3000000000001
 10
1924.5
 20
763.5
 10
1929.2
 20
761.1
 10
1932.8
 20
757.5
 10
1935.2
 20
752.8000000000001
 10
1935.9
 20
748.4
 10
1935.9
 20
671.0
  0
LWPOLYLINE
  5
63
330
1F
100
AcDbEntity
  8
text2
100
AcDbPolyline
 90
        8
 70
     1
 43
0.0
 10
1935.9
 20
630.0
 10
1935.9
 20
572.0
 10
1867.1
 20
572.0
 10
1837.1
 20
584.5
 10
1827.9
 20
584.5
 10
1827.9
 20
617.5
 10
1837.1
 20
617.5
 10
1867.1
 20
630.0
  0
LWPOLYLINE
  5
64
330
1F
100
AcDbEntity
  8
text2
100
AcDbPolyline
 90
        4
 70
     1
 43
0.0
 10
306.0
 20
1339.0
 10
306.0
 20
1534.0
 10
401.0
 20
1534.0
 10
401.0
 20
1339.0
  0
LWPOLYLINE
  5
65
330
1F
100
AcDbEntity
  8
text2
100
AcDbPolyline
 90
        4
 70
     1
 43
0.0
 10
456.0
 20
1439.0
 10
456.0
 20
1534.0
 10
701.0
 20
1534.0
 10
701.0
 20
1439.0
  0
LWPOLYLINE
  5
66
330
1F
100
AcDbEntity
  8
text2
100
AcDbPolyline
 90
        4
 70
     1
 43
0.0
 10
756.0
 20
1439.0
 10
756.0
 20
1534.0
 10
851.0
 20
1534.0
 10
851.0
 20
1439.0
  0
LWPOLYLINE
  5
67
330
1F
100
AcDbEntity
  8
text2
100
AcDbPolyline
 90
       11
 70
     1
 43
0.0
 10
269.64
 20
1487.145
 10
276.785
 20
1487.145
 10
276.785
 20
1480.0
 10
255.355
 20
1480.0
 10
255.355
 20
1487.145
 10
262.5
 20
1487.145
 10
262.5
 20
1522.855
 10
255.355
 20
1522.855
 10
262.5
 20
1530.0
 10
269.64
 20
1530.0
 10
269.64
 20
1487.145
  0
LWPOLYLINE
  5
68
330
1F
100
AcDbEntity
  8
text2
100
AcDbPolyline
 90
        9
 70
     1
 43
0.0
 10
198.215
 20
1480.0
 10
198.215
 20
1530.0
 10
226.785
 20
1530.0
 10
233.925
 20
1522.855
 10
233.925
 20
1508.57
 10
226.785
 20
1501.43
 10
205.355
 20
1501.43
 10
205.355
 20
1480.0
 10
198.215
 20
1480.0
  0
LWPOLYLINE
  5
69
330
1F
100
AcDbEntity
  8
text2
100
AcDbPolyline
 90
        4
 70
     1
 43
0.0
 10
906.0
 20
1439.0
 10
906.0
 20
1534.0
 10
1001.0
 20
1534.0
 10
1001.0
 20
1439.0
  0
LWPOLYLINE
  5
6A
330
1F
100
AcDbEntity
  8
text2
100
AcDbPolyline
 90
        4
 70
     1
 43
0.0
 10
1056.0
 20
1439.0
 10
1056.0
 20
1534.0
 10
1151.0
 20
1534.0
 10
1151.0
 20
1439.0
  0
LWPOLYLINE
  5
6B
330
1F
100
AcDbEntity
  8
text2
100
AcDbPolyline
 90
        4
 70
     1
 43
0.0
 10
1206.0
 20
1439.0
 10
1206.0
 20
1534.0
 10
1451.0
 20
1534.0
 10
1451.0
 20
1439.0
  0
LWPOLYLINE
  5
6C
330
1F
100
AcDbEntity
  8
text2
100
AcDbPolyline
 90
        4
 70
     1
 43
0.0
 10
1506.0
 20
1439.0
 10
1506.0
 20
1534.0
 10
1601.0
 20
1534.0
 10
1601.0
 20
1439.0
  0
LWPOLYLINE
  5
6D
330
1F
100
AcDbEntity
  8
text2
100
AcDbPolyline
 90
        4
 70
     1
 43
0.0
 10
1656.0
 20
1439.0
 10
1656.0
 20
1534.0
 10
1751.0
 20
1534.0
 10
1751.0
 20
1439.0
  0
LWPOLYLINE
  5
6E
330
1F
100
AcDbEntity
  8
text2
100
AcDbPolyline
 90
        4
 70
     1
 43
0.0
 10
1806.0
 20
1439.0
 10
1806.0
 20
1534.0
 10
1901.0
 20
1534.0
 10
1901.0
 20
1439.0
  0
LWPOLYLINE
  5
6F
330
1F
100
AcDbEntity
  8
text2
100
AcDbPolyline
 90
       27
 70
     1
 43
0.0
 10
116.3
 20
531.0
 10
132.7
 20
531.0
 10
137.1
 20
530.3
 10
141.8
 20
527.9
 10
145.4
 20
524.3
 10
147.8
 20
519.6
 10
148.6
 20
514.5
 10
147.8
 20
509.4
 10
145.4
 20
504.7
 10
141.8
 20
501.1
 10
137.1
 20
498.7
 10
132.7
 20
498.0
 10
123.4
 20
498.0
 10
100.9
 20
462.8
 10
100.9
 20
453.6
 10
100.2
 20
449.2
 10
97.8
 20
444.5
 10
94.2
 20
440.9
 10
89.5
 20
438.5
 10
84.4
 20
437.7
 10
79.3
 20
438.5
 10
74.60000000000001
 20
440.9
 10
71.0
 20
444.5
 10
68.60000000000001
 20
449.2
 10
67.9
 20
453.6
 10
67.9
 20
531.0
 10
116.3
 20
531.0
  0
LWPOLYLINE
  5
70
330
1F
100
AcDbEntity
  8
text2
100
AcDbPolyline
 90
       26
 70
     1
 43
0.0
 10
67.9
 20
671.0
 10
67.9
 20
748.4
 10
68.60000000000001
 20
752.8000000000001
 10
71.0
 20
757.5
 10
74.60000000000001
 20
761.1
 10
79.3
 20
763.5
 10
84.4
 20
764.3000000000001
 10
89.5
 20
763.5
 10
94.2
 20
761.1
 10
97.8
 20
757.5
 10
100.2
 20
752.8000000000001
 10
100.9
 20
748.4
 10
100.9
 20
739.2
 10
123.4
 20
704.0
 10
132.7
 20
704.0
 10
137.1
 20
703.3000000000001
 10
141.8
 20
700.9
 10
145.4
 20
697.3000000000001
 10
147.8
 20
692.6
 10
148.6
 20
687.5
 10
147.8
 20
682.4
 10
145.4
 20
677.7
 10
141.8
 20
674.1
 10
137.1
 20
671.7
 10
132.7
 20
671.0
 10
67.9
 20
671.0
  0
LWPOLYLINE
  5
71
330
1F
100
AcDbEntity
  8
text2
100
AcDbPolyline
 90
        9
 70
     1
 43
0.0
 10
67.9
 20
572.0
 10
67.9
 20
630.0
 10
136.7
 20
630.0
 10
166.7
 20
617.5
 10
175.9
 20
617.5
 10
175.9
 20
584.5
 10
166.7
 20
584.5
 10
136.7
 20
572.0
 10
67.9
 20
572.0
  0
LWPOLYLINE
  5
72
330
1F
100
AcDbEntity
  8
text2
100
AcDbPolyline
 90
        4
 70
     1
 43
0.0
 10
0.0
 20
0.0
 10
0.0
 20
1600.0
 10
2000.0
 20
1600.0
 10
2000.0
 20
0.0
  0
LWPOLYLINE
  5
73
330
1F
100
AcDbEntity
  8
text2
100
AcDbPolyline
 90
       11
 70
     1
 43
0.0
 10
148.6
 20
732.785
 10
151.458
 20
732.785
 10
151.458
 20
729.927
 10
142.886
 20
729.927
 10
142.886
 20
732.785
 10
145.744
 20
732.785
 10
145.744
 20
747.069
 10
142.886
 20
747.069
 10
145.744
 20
749.927
 10
148.6
 20
749.927
 10
148.6
 20
732.785
  0
LWPOLYLINE
  5
74
330
1F
100
AcDbEntity
  8
text2
100
AcDbPolyline
 90
       11
 70
     1
 43
0.0
 10
1869.15
 20
432.187
 10
1873.437
 20
432.187
 10
1873.437
 20
427.9
 10
1860.579
 20
427.9
 10
1860.579
 20
432.187
 10
1864.866
 20
432.187
 10
1864.866
 20
453.613
 10
1860.579
 20
453.613
 10
1864.866
 20
457.9
 10
1869.15
 20
457.9
 10
1869.15
 20
432.187
  0
LWPOLYLINE
  5
75
330
1F
100
AcDbEntity
  8
text2
100
AcDbPolyline
 90
        9
 70
     1
 43
0.0
 10
1834.33
 20
360.0
 10
1834.33
 20
410.0
 10
1862.9
 20
410.0
 10
1870.04
 20
402.855
 10
1870.04
 20
388.57
 10
1862.9
 20
381.43
 10
1841.47
 20
381.43
 10
1841.47
 20
360.0
 10
1834.33
 20
360.0
  0
LWPOLYLINE
  5
76
330
1F
100
AcDbEntity
  8
text2
100
AcDbPolyline
 90
       16
 70
     1
 43
0.0
 10
1884.33
 20
360.0
 10
1884.33
 20
370.715
 10
1912.9
 20
392.145
 10
1912.9
 20
399.285
 10
1909.33
 20
402.855
 10
1895.04
 20
402.855
 10
1891.47
 20
399.285
 10
1884.33
 20
402.855
 10
1891.47
 20
410.0
 10
1912.9
 20
410.0
 10
1920.04
 20
402.855
 10
1920.04
 20
388.57
 10
1891.47
 20
367.145
 10
1920.04
 20
367.145
 10
1920.04
 20
360.0
 10
1884.33
 20
360.0
  0
LWPOLYLINE
  5
77
330
1F
100
AcDbEntity
  8
text2
100
AcDbPolyline
 90
        4
 70
     1
 43
0.0
 10
1723.2
 20
153.6
 10
1723.2
 20
278.1
 10
1920.7
 20
278.1
 10
1920.7
 20
153.6
  0
LWPOLYLINE
  5
78
330
1F
100
AcDbEntity
  8
text2
100
AcDbPolyline
 90
        9
 70
     1
 43
0.0
 10
1899.27
 20
108.025
 10
1906.415
 20
115.17
 10
1906.415
 20
118.74
 10
1902.845
 20
122.31
 10
1888.555
 20
122.31
 10
1884.985
 20
118.74
 10
1884.985
 20
115.17
 10
1892.13
 20
108.025
 10
1899.27
 20
108.025
  0
LWPOLYLINE
  5
79
330
1F
100
AcDbEntity
  8
text2
100
AcDbPolyline
 90
        9
 70
     1
 43
0.0
 10
1888.555
 20
86.60000000000001
 10
1902.845
 20
86.60000000000001
 10
1906.415
 20
90.17
 10
1906.415
 20
93.74
 10
1899.27
 20
100.885
 10
1892.13
 20
100.885
 10
1884.985
 20
93.74
 10
1884.985
 20
90.17
 10
1888.555
 20
86.60000000000001
  0
LWPOLYLINE
  5
7A
330
1F
100
AcDbEntity
  8
text2
100
AcDbPolyline
 90
       15
 70
     1
 43
0.0
 10
1877.845
 20
86.60000000000001
 10
1877.845
 20
97.31
 10
1884.985
 20
104.455
 10
1877.845
 20
111.6
 10
1877.845
 20
122.31
 10
1884.985
 20
129.455
 10
1906.415
 20
129.455
 10
1913.555
 20
122.31
 10
1913.555
 20
111.6
 10
1906.415
 20
104.455
 10
1913.555
 20
97.31
 10
1913.555
 20
86.60000000000001
 10
1906.415
 20
79.455
 10
1884.985
 20
79.455
 10
1877.845
 20
86.60000000000001
  0
LWPOLYLINE
  5
7B
330
1F
100
AcDbEntity
  8
text2
100
AcDbPolyline
 90
       26
 70
     1
 43
0.0
 10
1827.845
 20
86.60000000000001
 10
1834.985
 20
90.17
 10
1838.555
 20
86.60000000000001
 10
1852.845
 20
86.60000000000001
 10
1856.415
 20
90.17
 10
1856.415
 20
93.74
 10
1849.27
 20
100.885
 10
1842.13
 20
100.885
 10
1842.13
 20
108.025
 10
1849.27
 20
108.025
 10
1856.415
 20
115.17
 10
1856.415
 20
118.74
 10
1852.845
 20
122.31
 10
1838.555
 20
122.31
 10
1834.985
 20
118.74
 10
1827.845
 20
122.31
 10
1834.985
 20
129.455
 10
1856.415
 20
129.455
 10
1863.555
 20
122.31
 10
1863.555
 20
111.6
 10
1856.415
 20
104.455
 10
1863.555
 20
97.31
 10
1863.555
 20
86.60000000000001
 10
1856.415
 20
79.455
 10
1834.985
 20
79.455
 10
1827.845
 20
86.60000000000001
  0
LWPOLYLINE
  5
7C
330
1F
100
AcDbEntity
  8
text2
100
AcDbPolyline
 90
        9
 70
     1
 43
0.0
 10
1788.555
 20
90.17
 10
1788.555
 20
118.74
 10
1792.13
 20
122.31
 10
1799.27
 20
122.31
 10
1802.845
 20
118.74
 10
1802.845
 20
90.17
 10
1799.27
 20
86.60000000000001
 10
1792.13
 20
86.60000000000001
 10
1788.555
 20
90.17
  0
LWPOLYLINE
  5
7D
330
1F
100
AcDbEntity
  8
text2
100
AcDbPolyline
 90
        9
 70
     1
 43
0.0
 10
1781.415
 20
86.60000000000001
 10
1781.415
 20
122.31
 10
1788.555
 20
129.455
 10
1802.845
 20
129.455
 10
1809.985
 20
122.31
 10
1809.985
 20
86.60000000000001
 10
1802.845
 20
79.455
 10
1788.555
 20
79.455
 10
1781.415
 20
86.60000000000001
  0
LWPOLYLINE
  5
7E
330
1F
100
AcDbEntity
  8
text2
100
AcDbPolyline
 90
        9
 70
     1
 43
0.0
 10
1738.555
 20
90.17
 10
1738.555
 20
118.74
 10
1742.13
 20
122.31
 10
1749.27
 20
122.31
 10
1752.845
 20
118.74
 10
1752.845
 20
90.17
 10
1749.27
 20
86.60000000000001
 10
1742.13
 20
86.60000000000001
 10
1738.555
 20
90.17
  0
LWPOLYLINE
  5
7F
330
1F
100
AcDbEntity
  8
text2
100
AcDbPolyline
 90
        9
 70
     1
 43
0.0
 10
1731.415
 20
86.60000000000001
 10
1731.415
 20
122.31
 10
1738.555
 20
129.455
 10
1752.845
 20
129.455
 10
1759.985
 20
122.31
 10
1759.985
 20
86.60000000000001
 10
1752.845
 20
79.455
 10
1738.555
 20
79.455
 10
1731.415
 20
86.60000000000001
  0
LWPOLYLINE
  5
80
330
1F
100
AcDbEntity
  8
text2
100
AcDbPolyline
 90
       11
 70
     1
 43
0.0
 10
1677.845
 20
79.455
 10
1677.845
 20
90.17
 10
1706.415
 20
122.31
 10
1677.845
 20
122.31
 10
1677.845
 20
129.455
 10
1713.555
 20
129.455
 10
1713.555
 20
118.74
 10
1684.985
 20
86.60000000000001
 10
1713.555
 20
86.60000000000001
 10
1713.555
 20
79.455
 10
1677.845
 20
79.455
  0
LWPOLYLINE
  5
81
330
1F
100
AcDbEntity
  8
text2
100
AcDbPolyline
 90
        7
 70
     1
 43
0.0
 10
1634.985
 20
108.025
 10
1652.845
 20
108.025
 10
1656.415
 20
111.6
 10
1656.415
 20
118.74
 10
1652.845
 20
122.31
 10
1634.985
 20
122.31
 10
1634.985
 20
108.025
  0
LWPOLYLINE
  5
82
330
1F
100
AcDbEntity
  8
text2
100
AcDbPolyline
 90
        9
 70
     1
 43
0.0
 10
1627.845
 20
79.455
 10
1627.845
 20
129.455
 10
1656.415
 20
129.455
 10
1663.555
 20
122.31
 10
1663.555
 20
108.025
 10
1656.415
 20
100.885
 10
1634.985
 20
100.885
 10
1634.985
 20
79.455
 10
1627.845
 20
79.455
  0
LWPOLYLINE
  5
83
330
1F
100
AcDbEntity
  8
text2
100
AcDbPolyline
 90
        7
 70
     1
 43
0.0
 10
1584.985
 20
108.025
 10
1606.415
 20
108.025
 10
1606.415
 20
118.74
 10
1602.845
 20
122.31
 10
1588.555
 20
122.31
 10
1584.985
 20
118.74
 10
1584.985
 20
108.025
  0
LWPOLYLINE
  5
84
330
1F
100
AcDbEntity
  8
text2
100
AcDbPolyline
 90
       11
 70
     1
 43
0.0
 10
1577.845
 20
79.455
 10
1577.845
 20
122.31
 10
1584.985
 20
129.455
 10
1606.415
 20
129.455
 10
1613.555
 20
122.31
 10
1613.555
 20
79.455
 10
1606.415
 20
79.455
 10
1606.415
 20
100.885
 10
1584.985
 20
100.885
 10
1584.985
 20
79.455
 10
1577.845
 20
79.455
  0
LWPOLYLINE
  5
85
330
1F
100
AcDbEntity
  8
text2
100
AcDbPolyline
 90
        9
 70
     1
 43
0.0
 10
1549.27
 20
90.17
 10
1549.27
 20
97.31
 10
1545.7
 20
100.885
 10
1542.13
 20
100.885
 10
1538.555
 20
97.31
 10
1538.555
 20
90.17
 10
1542.13
 20
86.60000000000001
 10
1545.7
 20
86.60000000000001
 10
1549.27
 20
90.17
  0
LWPOLYLINE
  5
86
330
1F
100
AcDbEntity
  8
text2
100
AcDbPolyline
 90
       18
 70
     1
 43
0.0
 10
1552.845
 20
79.455
 10
1552.845
 20
75.884
 10
1549.27
 20
72.31
 10
1531.415
 20
72.31
 10
1531.415
 20
65.17
 10
1552.845
 20
65.17
 10
1559.985
 20
72.31
 10
1559.985
 20
108.025
 10
1552.845
 20
108.025
 10
1552.845
 20
104.455
 10
1549.27
 20
108.025
 10
1538.555
 20
108.025
 10
1531.415
 20
100.885
 10
1531.415
 20
86.60000000000001
 10
1538.555
 20
79.455
 10
1549.27
 20
79.455
 10
1552.845
 20
83.026
 10
1552.845
 20
79.455
  0
LWPOLYLINE
  5
87
330
1F
100
AcDbEntity
  8
text2
100
AcDbPolyline
 90
        7
 70
     1
 43
0.0
 10
1736.985
 20
316.74
 10
1758.415
 20
316.74
 10
1758.415
 20
327.455
 10
1754.845
 20
331.025
 10
1740.555
 20
331.025
 10
1736.985
 20
327.455
 10
1736.985
 20
316.74
  0
LWPOLYLINE
  5
88
330
1F
100
AcDbEntity
  8
text2
100
AcDbPolyline
 90
       11
 70
     1
 43
0.0
 10
1729.845
 20
288.17
 10
1729.845
 20
331.025
 10
1736.985
 20
338.17
 10
1758.415
 20
338.17
 10
1765.555
 20
331.025
 10
1765.555
 20
288.17
 10
1758.415
 20
288.17
 10
1758.415
 20
309.6
 10
1736.985
 20
309.6
 10
1736.985
 20
288.17
 10
1729.845
 20
288.17
  0
LWPOLYLINE
  5
89
330
1F
100
AcDbEntity
  8
text2
100
AcDbPolyline
 90
       74
 70
     1
 43
0.0
 10
1907.5
 20
223.6
 10
1907.9
 20
220.4
 10
1907.9
 20
214.8
 10
1905.9
 20
208.4
 10
1902.7
 20
202.4
 10
1898.3
 20
196.8
 10
1892.7
 20
191.6
 10
1885.9
 20
186.4
 10
1877.9
 20
182.4
 10
1869.1
 20
178.4
 10
1859.5
 20
175.2
 10
1849.1
 20
172.8
 10
1838.3
 20
171.2
 10
1826.7
 20
170.0
 10
1816.7
 20
170.0
 10
1810.3
 20
170.4
 10
1803.9
 20
170.8
 10
1797.5
 20
171.2
 10
1791.5
 20
172.4
 10
1785.5
 20
173.6
 10
1779.5
 20
174.8
 10
1773.9
 20
176.4
 10
1768.7
 20
178.0
 10
1763.5
 20
180.0
 10
1758.7
 20
182.0
 10
1753.9
 20
184.4
 10
1749.9
 20
186.4
 10
1753.9
 20
184.8
 10
1757.5
 20
183.2
 10
1761.5
 20
181.6
 10
1765.9
 20
180.0
 10
1769.9
 20
178.8
 10
1774.3
 20
178.0
 10
1779.1
 20
176.8
 10
1783.5
 20
176.0
 10
1788.3
 20
175.6
 10
1793.5
 20
175.2
 10
1798.7
 20
174.8
 10
1813.9
 20
174.8
 10
1825.5
 20
176.0
 10
1836.3
 20
177.6
 10
1846.7
 20
180.0
 10
1856.3
 20
183.2
 10
1865.1
 20
187.2
 10
1873.1
 20
191.2
 10
1879.9
 20
196.0
 10
1885.5
 20
201.6
 10
1889.9
 20
207.2
 10
1893.1
 20
213.2
 10
1895.1
 20
219.6
 10
1895.5
 20
224.8
 10
1895.1
 20
228.0
 10
1894.7
 20
230.8
 10
1894.3
 20
233.6
 10
1893.5
 20
236.4
 10
1892.3
 20
239.2
 10
1890.7
 20
242.0
 10
1889.1
 20
244.4
 10
1887.1
 20
246.8
 10
1885.1
 20
249.2
 10
1882.3
 20
251.6
 10
1879.5
 20
253.6
 10
1876.3
 20
256.0
 10
1880.3
 20
253.6
 10
1884.7
 20
251.2
 10
1888.3
 20
248.8
 10
1891.9
 20
246.0
 10
1895.5
 20
243.2
 10
1898.3
 20
240.0
 10
1901.1
 20
236.8
 10
1903.5
 20
234.0
 10
1905.1
 20
230.4
 10
1906.7
 20
227.2
 10
1907.5
 20
223.6
  0
LWPOLYLINE
  5
8A
330
1F
100
AcDbEntity
  8
text2
100
AcDbPolyline
 90
       51
 70
     1
 43
0.0
 10
1806.1
 20
192.2
 10
1804.3
 20
192.4
 10
1801.1
 20
192.8
 10
1794.7
 20
194.0
 10
1787.5
 20
195.6
 10
1780.7
 20
198.0
 10
1774.3
 20
200.8
 10
1768.7
 20
204.0
 10
1763.5
 20
207.6
 10
1758.7
 20
211.2
 10
1755.1
 20
215.2
 10
1751.9
 20
219.6
 10
1749.5
 20
223.6
 10
1748.3
 20
228.4
 10
1747.9
 20
232.8
 10
1748.3
 20
236.4
 10
1749.1
 20
240.4
 10
1749.9
 20
242.4
 10
1750.7
 20
244.0
 10
1754.3
 20
248.8
 10
1755.9
 20
250.0
 10
1757.9
 20
251.2
 10
1759.5
 20
252.4
 10
1764.3
 20
254.8
 10
1761.1
 20
253.6
 10
1755.5
 20
251.2
 10
1752.7
 20
249.6
 10
1750.3
 20
247.6
 10
1747.9
 20
246.0
 10
1743.9
 20
242.0
 10
1742.3
 20
240.0
 10
1741.1
 20
237.6
 10
1740.3
 20
235.6
 10
1739.5
 20
233.2
 10
1739.1
 20
229.2
 10
1739.5
 20
224.8
 10
1741.1
 20
220.4
 10
1743.1
 20
216.0
 10
1746.3
 20
211.6
 10
1749.9
 20
207.6
 10
1754.7
 20
204.0
 10
1759.9
 20
200.4
 10
1765.5
 20
197.2
 10
1771.9
 20
194.8
 10
1778.7
 20
192.4
 10
1785.9
 20
190.4
 10
1792.3
 20
189.2
 10
1796.7
 20
188.8
 10
1800.7
 20
188.4
 10
1806.1
 20
188.4
 10
1806.1
 20
192.2
  0
LWPOLYLINE
  5
8B
330
1F
100
AcDbEntity
  8
text2
100
AcDbPolyline
 90
       95
 70
     1
 43
0.0
 10
1806.1
 20
253.4
 10
1803.9
 20
255.6
 10
1802.7
 20
256.4
 10
1801.1
 20
257.6
 10
1799.1
 20
258.4
 10
1797.5
 20
259.2
 10
1795.9
 20
259.6
 10
1791.9
 20
260.4
 10
1783.9
 20
260.4
 10
1779.9
 20
259.6
 10
1777.5
 20
258.8
 10
1777.9
 20
258.8
 10
1779.5
 20
259.2
 10
1781.5
 20
259.2
 10
1783.1
 20
259.6
 10
1784.7
 20
259.6
 10
1786.3
 20
259.2
 10
1787.9
 20
259.2
 10
1789.5
 20
258.8
 10
1790.7
 20
258.4
 10
1792.3
 20
257.6
 10
1793.5
 20
257.2
 10
1795.1
 20
256.4
 10
1797.5
 20
254.8
 10
1801.1
 20
251.2
 10
1802.7
 20
248.8
 10
1803.5
 20
247.2
 10
1804.3
 20
246.0
 10
1805.1
 20
244.4
 10
1805.1
 20
243.2
 10
1797.9
 20
242.4
 10
1794.7
 20
241.6
 10
1791.1
 20
240.8
 10
1787.9
 20
240.0
 10
1784.7
 20
238.8
 10
1781.5
 20
238.0
 10
1778.7
 20
236.8
 10
1775.9
 20
235.2
 10
1773.1
 20
234.0
 10
1770.7
 20
232.4
 10
1772.7
 20
233.2
 10
1775.1
 20
234.4
 10
1777.5
 20
235.2
 10
1779.5
 20
236.0
 10
1781.9
 20
236.4
 10
1784.7
 20
237.2
 10
1787.1
 20
237.6
 10
1792.7
 20
238.4
 10
1795.5
 20
238.4
 10
1798.3
 20
238.8
 10
1803.9
 20
239.2
 10
1805.9
 20
239.2
 10
1805.5
 20
238.4
 10
1804.3
 20
233.2
 10
1803.9
 20
228.0
 10
1803.9
 20
222.4
 10
1804.3
 20
219.2
 10
1801.9
 20
220.4
 10
1799.9
 20
220.8
 10
1798.3
 20
221.6
 10
1796.3
 20
221.6
 10
1794.7
 20
222.0
 10
1792.7
 20
222.0
 10
1790.7
 20
221.6
 10
1789.1
 20
221.6
 10
1787.1
 20
220.8
 10
1785.5
 20
220.4
 10
1783.5
 20
219.6
 10
1781.9
 20
218.8
 10
1779.9
 20
217.6
 10
1778.3
 20
216.8
 10
1776.3
 20
215.6
 10
1773.5
 20
212.8
 10
1774.7
 20
213.6
 10
1776.3
 20
214.8
 10
1777.9
 20
215.6
 10
1779.1
 20
216.4
 10
1782.3
 20
217.2
 10
1783.5
 20
217.6
 10
1785.1
 20
218.0
 10
1786.7
 20
218.0
 10
1788.3
 20
218.4
 10
1789.9
 20
218.0
 10
1791.1
 20
218.0
 10
1792.7
 20
217.6
 10
1794.3
 20
217.6
 10
1795.9
 20
217.2
 10
1797.1
 20
216.8
 10
1799.5
 20
215.2
 10
1800.7
 20
214.8
 10
1801.9
 20
213.6
 10
1804.3
 20
212.0
 10
1805.1
 20
210.8
 10
1806.1
 20
209.8
 10
1806.1
 20
253.4
  0
LWPOLYLINE
  5
8C
330
1F
100
AcDbEntity
  8
text2
100
AcDbPolyline
 90
      142
 70
     1
 43
0.0
 10
1873.1
 20
248.4
 10
1871.1
 20
248.8
 10
1859.9
 20
248.8
 10
1855.1
 20
248.0
 10
1852.3
 20
247.2
 10
1849.9
 20
246.8
 10
1847.5
 20
246.0
 10
1845.1
 20
244.8
 10
1842.7
 20
244.0
 10
1840.7
 20
242.8
 10
1837.9
 20
241.2
 10
1835.5
 20
239.6
 10
1833.9
 20
240.0
 10
1828.7
 20
241.6
 10
1822.7
 20
242.8
 10
1817.1
 20
243.2
 10
1817.5
 20
245.2
 10
1821.5
 20
254.0
 10
1823.9
 20
257.2
 10
1827.5
 20
260.8
 10
1829.1
 20
262.0
 10
1830.3
 20
262.8
 10
1831.9
 20
264.0
 10
1833.5
 20
264.8
 10
1837.5
 20
266.4
 10
1839.5
 20
266.8
 10
1841.5
 20
267.6
 10
1843.5
 20
267.6
 10
1845.9
 20
268.0
 10
1848.3
 20
268.0
 10
1845.5
 20
268.4
 10
1837.9
 20
268.4
 10
1835.5
 20
268.0
 10
1828.3
 20
265.6
 10
1823.5
 20
263.2
 10
1821.1
 20
261.6
 10
1819.1
 20
260.0
 10
1815.5
 20
256.8
 10
1812.3
 20
252.4
 10
1809.9
 20
248.8
 10
1809.1
 20
249.6
 10
1808.3
 20
251.2
 10
1806.1
 20
253.4
 10
1806.1
 20
209.8
 10
1806.3
 20
209.6
 10
1807.1
 20
208.4
 10
1807.5
 20
208.0
 10
1807.9
 20
206.8
 10
1810.3
 20
202.0
 10
1813.1
 20
198.4
 10
1814.7
 20
196.0
 10
1818.7
 20
192.0
 10
1819.5
 20
191.6
 10
1811.1
 20
191.6
 10
1807.9
 20
192.0
 10
1806.1
 20
192.2
 10
1806.1
 20
188.4
 10
1808.7
 20
188.4
 10
1820.7
 20
189.6
 10
1821.5
 20
190.0
 10
1823.1
 20
188.8
 10
1825.1
 20
187.2
 10
1827.5
 20
186.4
 10
1829.9
 20
185.2
 10
1834.7
 20
183.6
 10
1837.5
 20
183.2
 10
1839.9
 20
183.2
 10
1835.9
 20
184.0
 10
1831.9
 20
185.6
 10
1830.3
 20
186.4
 10
1828.7
 20
187.6
 10
1826.3
 20
190.0
 10
1825.9
 20
190.8
 10
1827.9
 20
191.2
 10
1831.1
 20
192.4
 10
1834.3
 20
193.2
 10
1837.1
 20
194.4
 10
1834.7
 20
193.6
 10
1831.9
 20
192.8
 10
1826.3
 20
192.0
 10
1825.5
 20
192.0
 10
1825.1
 20
192.4
 10
1823.9
 20
195.6
 10
1823.5
 20
198.8
 10
1823.1
 20
202.4
 10
1823.5
 20
206.4
 10
1824.3
 20
210.4
 10
1825.5
 20
214.4
 10
1827.1
 20
218.4
 10
1829.1
 20
222.4
 10
1831.5
 20
226.4
 10
1833.9
 20
230.0
 10
1835.9
 20
232.4
 10
1836.7
 20
231.6
 10
1840.7
 20
229.2
 10
1843.9
 20
226.4
 10
1846.7
 20
223.2
 10
1848.7
 20
220.0
 10
1849.9
 20
216.4
 10
1850.3
 20
213.6
 10
1850.3
 20
212.0
 10
1849.9
 20
210.0
 10
1849.9
 20
208.4
 10
1849.5
 20
207.2
 10
1847.9
 20
204.0
 10
1847.1
 20
202.8
 10
1846.3
 20
201.2
 10
1845.1
 20
200.0
 10
1843.5
 20
198.8
 10
1841.9
 20
197.2
 10
1840.3
 20
196.0
 10
1842.7
 20
197.6
 10
1844.7
 20
198.8
 10
1846.7
 20
200.8
 10
1848.7
 20
202.4
 10
1850.3
 20
204.0
 10
1853.5
 20
208.0
 10
1854.7
 20
209.6
 10
1856.3
 20
213.6
 10
1856.7
 20
215.6
 10
1856.7
 20
217.6
 10
1856.3
 20
220.8
 10
1855.1
 20
224.4
 10
1853.1
 20
227.6
 10
1850.7
 20
230.8
 10
1847.1
 20
233.6
 10
1843.5
 20
236.0
 10
1841.1
 20
237.2
 10
1844.3
 20
239.6
 10
1846.7
 20
241.2
 10
1848.7
 20
242.4
 10
1850.7
 20
243.2
 10
1852.7
 20
244.4
 10
1854.3
 20
245.2
 10
1856.3
 20
245.6
 10
1858.3
 20
246.4
 10
1860.3
 20
246.8
 10
1862.3
 20
247.6
 10
1863.9
 20
248.0
 10
1865.9
 20
248.0
 10
1867.9
 20
248.4
 10
1873.1
 20
248.4
  0
LWPOLYLINE
  5
8D
330
1F
100
AcDbEntity
  8
text2
100
AcDbPolyline
 90
       11
 70
     1
 43
0.0
 10
1887.0
 20
1404.0
 10
1889.858
 20
1404.0
 10
1889.858
 20
1401.142
 10
1881.286
 20
1401.142
 10
1881.286
 20
1404.0
 10
1884.144
 20
1404.0
 10
1884.144
 20
1418.284
 10
1881.286
 20
1418.284
 10
1884.144
 20
1421.142
 10
1887.0
 20
1421.142
 10
1887.0
 20
1404.0
  0
ENDSEC
  0
SECTION
  2
OBJECTS
  0
DICTIONARY
  5
C
330
0
100
AcDbDictionary
281
     1
  3
ACAD_GROUP
350
D
  3
ACAD_LAYOUT
350
1A
  3
ACAD_MLEADERSTYLE
350
8F
  3
ACAD_MLINESTYLE
350
17
  3
ACAD_PLOTSETTINGS
350
19
  3
ACAD_PLOTSTYLENAME
350
E
  3
ACAD_SCALELIST
350
3B
  3
ACAD_TABLESTYLE
350
8E
  3
ACAD_VISUALSTYLE
350
2A
  0
DICTIONARY
  5
D
102
{ACAD_REACTORS
330
C
102
}
330
C
100
AcDbDictionary
281
     1
  0
DICTIONARY
  5
1A
102
{ACAD_REACTORS
330
C
102
}
330
C
100
AcDbDictionary
281
     1
  3
Layout1
350
1E
  3
Layout2
350
26
  3
Model
350
22
  0
DICTIONARY
  5
8F
102
{ACAD_REACTORS
330
C
102
}
330
C
100
AcDbDictionary
281
     1
  0
DICTIONARY
  5
17
102
{ACAD_REACTORS
330
C
102
}
330
C
100
AcDbDictionary
281
     1
  3
Standard
350
18
  0
DICTIONARY
  5
19
102
{ACAD_REACTORS
330
C
102
}
330
C
100
AcDbDictionary
281
     1
  0
ACDBDICTIONARYWDFLT
  5
E
102
{ACAD_REACTORS
330
C
102
}
330
C
100
AcDbDictionary
281
     1
  3
Normal
350
F
100
AcDbDictionaryWithDefault
340
F
  0
DICTIONARY
  5
3B
102
{ACAD_REACTORS
330
C
102
}
330
C
100
AcDbDictionary
281
     1
  3
A0
350
3C
  3
A1
350
3D
  3
A2
350
3E
  3
A3
350
3F
  3
A4
350
40
  3
A5
350
41
  3
A6
350
42
  3
A7
350
43
  3
A8
350
44
  3
A9
350
45
  3
B0
350
46
  3
B1
350
47
  3
B2
350
48
  3
B3
350
49
  3
B4
350
4A
  3
B5
350
4B
  3
B6
350
4C
  3
B7
350
4D
  3
B8
350
4E
  3
B9
350
4F
  3
C0
350
50
  3
C1
350
51
  3
C2
350
52
  3
C3
350
53
  3
C4
350
54
  3
C5
350
55
  3
C6
350
56
  3
C7
350
57
  3
C8
350
58
  3
C9
350
59
  3
D0
350
5A
  3
D1
350
5B
  3
D2
350
5C
  0
DICTIONARY
  5
8E
102
{ACAD_REACTORS
330
C
102
}
330
C
100
AcDbDictionary
281
     1
  0
DICTIONARY
  5
2A
102
{ACAD_REACTORS
330
C
102
}
330
C
100
AcDbDictionary
281
     1
  3
2dWireframe
350
2F
  3
3D Hidden
350
31
  3
3dWireframe
350
30
  3
Basic
350
32
  3
Brighten
350
36
  3
ColorChange
350
3A
  3
Conceptual
350
34
  3
Dim
350
35
  3
Facepattern
350
39
  3
Flat
350
2B
  3
FlatWithEdges
350
2C
  3
Gouraud
350
2D
  3
GouraudWithEdges
350
2E
  3
Linepattern
350
38
  3
Realistic
350
33
  3
Thicken
350
37
  0
LAYOUT
  5
1E
102
{ACAD_REACTORS
330
1A
102
}
330
1A
100
AcDbPlotSettings
  1

  2
none_device
  4

  6

 40
0.0
 41
0.0
 42
0.0
 43
0.0
 44
0.0
 45
0.0
 46
0.0
 47
0.0
 48
0.0
 49
0.0
140
0.0
141
0.0
142
1.0
143
1.0
 70
   688
 72
     0
 73
     0
 74
     5
  7

 75
    16
 76
     0
 77
     2
 78
   300
147
1.0
148
0.0
149
0.0
100
AcDbLayout
  1
Layout1
 70
     1
 71
     1
 10
0.0
 20
0.0
 11
12.0
 21
9.0
 12
0.0
 22
0.0
 32
0.0
 14
1.000000000000000E+20
 24
1.000000000000000E+20
 34
1.000000000000000E+20
 15
-1.000000000000000E+20
 25
-1.000000000000000E+20
 35
-1.000000000000000E+20
146
0.0
 13
0.0
 23
0.0
 33
0.0
 16
1.0
 26
0.0
 36
0.0
 17
0.0
 27
1.0
 37
0.0
 76
     0
330
1B
  0
LAYOUT
  5
26
102
{ACAD_REACTORS
330
1A
102
}
330
1A
100
AcDbPlotSettings
  1

  2
none_device
  4

  6

 40
0.0
 41
0.0
 42
0.0
 43
0.0
 44
0.0
 45
0.0
 46
0.0
 47
0.0
 48
0.0
 49
0.0
140
0.0
141
0.0
142
1.0
143
1.0
 70
   688
 72
     0
 73
     0
 74
     5
  7

 75
    16
 76
     0
 77
     2
 78
   300
147
1.0
148
0.0
149
0.0
100
AcDbLayout
  1
Layout2
 70
     1
 71
     2
 10
0.0
 20
0.0
 11
0.0
 21
0.0
 12
0.0
 22
0.0
 32
0.0
 14
0.0
 24
0.0
 34
0.0
 15
0.0
 25
0.0
 35
0.0
146
0.0
 13
0.0
 23
0.0
 33
0.0
 16
1.0
 26
0.0
 36
0.0
 17
0.0
 27
1.0
 37
0.0
 76
     0
330
23
  0
LAYOUT
  5
22
102
{ACAD_REACTORS
330
1A
102
}
330
1A
100
AcDbPlotSettings
  1

  2
none_device
  4

  6

 40
0.0
 41
0.0
 42
0.0
 43
0.0
 44
0.0
 45
0.0
 46
0.0
 47
0.0
 48
0.0
 49
0.0
140
0.0
141
0.0
142
1.0
143
1.0
 70
  1712
 72
     0
 73
     0
 74
     0
  7

 75
     0
 76
     0
 77
     2
 78
   300
147
1.0
148
0.0
149
0.0
100
AcDbLayout
  1
Model
 70
     1
 71
     0
 10
0.0
 20
0.0
 11
12.0
 21
9.0
 12
0.0
 22
0.0
 32
0.0
 14
1.000000000000000E+20
 24
1.000000000000000E+20
 34
1.000000000000000E+20
 15
-1.000000000000000E+20
 25
-1.000000000000000E+20
 35
-1.000000000000000E+20
146
0.0
 13
0.0
 23
0.0
 33
0.0
 16
1.0
 26
0.0
 36
0.0
 17
0.0
 27
1.0
 37
0.0
 76
     0
330
1F
331
29
  0
MLINESTYLE
  5
18
102
{ACAD_REACTORS
330
17
102
}
330
17
100
AcDbMlineStyle
  2
Standard
 70
     0
  3

 62
   256
 51
90.0
 52
90.0
 71
     2
 49
0.5
 62
   256
  6
BYLAYER
 49
-0.5
 62
   256
  6
BYLAYER
  0
ACDBPLACEHOLDER
  5
F
102
{ACAD_REACTORS
330
E
102
}
330
E
  0
SCALE
  5
3C
102
{ACAD_REACTORS
330
3B
102
}
330
3B
100
AcDbScale
 70
     0
300
1:1
140
1.0
141
1.0
290
     1
  0
SCALE
  5
3D
102
{ACAD_REACTORS
330
3B
102
}
330
3B
100
AcDbScale
 70
     0
300
1:2
140
1.0
141
2.0
290
     0
  0
SCALE
  5
3E
102
{ACAD_REACTORS
330
3B
102
}
330
3B
100
AcDbScale
 70
     0
300
1:4
140
1.0
141
4.0
290
     0
  0
SCALE
  5
3F
102
{ACAD_REACTORS
330
3B
102
}
330
3B
100
AcDbScale
 70
     0
300
1:5
140
1.0
141
5.0
290
     0
  0
SCALE
  5
40
102
{ACAD_REACTORS
330
3B
102
}
330
3B
100
AcDbScale
 70
     0
300
1:8
140
1.0
141
8.0
290
     0
  0
SCALE
  5
41
102
{ACAD_REACTORS
330
3B
102
}
330
3B
100
AcDbScale
 70
     0
300
1:10
140
1.0
141
10.0
290
     0
  0
SCALE
  5
42
102
{ACAD_REACTORS
330
3B
102
}
330
3B
100
AcDbScale
 70
     0
300
1:16
140
1.0
141
16.0
290
     0
  0
SCALE
  5
43
102
{ACAD_REACTORS
330
3B
102
}
330
3B
100
AcDbScale
 70
     0
300
1:20
140
1.0
141
20.0
290
     0
  0
SCALE
  5
44
102
{ACAD_REACTORS
330
3B
102
}
330
3B
100
AcDbScale
 70
     0
300
1:30
140
1.0
141
30.0
290
     0
  0
SCALE
  5
45
102
{ACAD_REACTORS
330
3B
102
}
330
3B
100
AcDbScale
 70
     0
300
1:40
140
1.0
141
40.0
290
     0
  0
SCALE
  5
46
102
{ACAD_REACTORS
330
3B
102
}
330
3B
100
AcDbScale
 70
     0
300
1:50
140
1.0
141
50.0
290
     0
  0
SCALE
  5
47
102
{ACAD_REACTORS
330
3B
102
}
330
3B
100
AcDbScale
 70
     0
300
1:100
140
1.0
141
100.0
290
     0
  0
SCALE
  5
48
102
{ACAD_REACTORS
330
3B
102
}
330
3B
100
AcDbScale
 70
     0
300
2:1
140
2.0
141
1.0
290
     0
  0
SCALE
  5
49
102
{ACAD_REACTORS
330
3B
102
}
330
3B
100
AcDbScale
 70
     0
300
4:1
140
4.0
141
1.0
290
     0
  0
SCALE
  5
4A
102
{ACAD_REACTORS
330
3B
102
}
330
3B
100
AcDbScale
 70
     0
300
8:1
140
8.0
141
1.0
290
     0
  0
SCALE
  5
4B
102
{ACAD_REACTORS
330
3B
102
}
330
3B
100
AcDbScale
 70
     0
300
10:1
140
10.0
141
1.0
290
     0
  0
SCALE
  5
4C
102
{ACAD_REACTORS
330
3B
102
}
330
3B
100
AcDbScale
 70
     0
300
100:1
140
100.0
141
1.0
290
     0
  0
SCALE
  5
4D
102
{ACAD_REACTORS
330
3B
102
}
330
3B
100
AcDbScale
 70
     0
300
1/128" = 1'-0"
140
0.0078125
141
12.0
290
     0
  0
SCALE
  5
4E
102
{ACAD_REACTORS
330
3B
102
}
330
3B
100
AcDbScale
 70
     0
300
1/64" = 1'-0"
140
0.015625
141
12.0
290
     0
  0
SCALE
  5
4F
102
{ACAD_REACTORS
330
3B
102
}
330
3B
100
AcDbScale
 70
     0
300
1/32" = 1'-0"
140
0.03125
141
12.0
290
     0
  0
SCALE
  5
50
102
{ACAD_REACTORS
330
3B
102
}
330
3B
100
AcDbScale
 70
     0
300
1/16" = 1'-0"
140
0.0625
141
12.0
290
     0
  0
SCALE
  5
51
102
{ACAD_REACTORS
330
3B
102
}
330
3B
100
AcDbScale
 70
     0
300
3/32" = 1'-0"
140
0.09375
141
12.0
290
     0
  0
SCALE
  5
52
102
{ACAD_REACTORS
330
3B
102
}
330
3B
100
AcDbScale
 70
     0
300
1/8" = 1'-0"
140
0.125
141
12.0
290
     0
  0
SCALE
  5
53
102
{ACAD_REACTORS
330
3B
102
}
330
3B
100
AcDbScale
 70
     0
300
3/16" = 1'-0"
140
0.1875
141
12.0
290
     0
  0
SCALE
  5
54
102
{ACAD_REACTORS
330
3B
102
}
330
3B
100
AcDbScale
 70
     0
300
1/4" = 1'-0"
140
0.25
141
12.0
290
     0
  0
SCALE
  5
55
102
{ACAD_REACTORS
330
3B
102
}
330
3B
100
AcDbScale
 70
     0
300
3/8" = 1'-0"
140
0.375
141
12.0
290
     0
  0
SCALE
  5
56
102
{ACAD_REACTORS
330
3B
102
}
330
3B
100
AcDbScale
 70
     0
300
1/2" = 1'-0"
140
0.5
141
12.0
290
     0
  0
SCALE
  5
57
102
{ACAD_REACTORS
330
3B
102
}
330
3B
100
AcDbScale
 70
     0
300
3/4" = 1'-0"
140
0.75
141
12.0
290
     0
  0
SCALE
  5
58
102
{ACAD_REACTORS
330
3B
102
}
330
3B
100
AcDbScale
 70
     0
300
1" = 1'-0"
140
1.0
141
12.0
290
     0
  0
SCALE
  5
59
102
{ACAD_REACTORS
330
3B
102
}
330
3B
100
AcDbScale
 70
     0
300
1-1/2" = 1'-0"
140
1.5
141
12.0
290
     0
  0
SCALE
  5
5A
102
{ACAD_REACTORS
330
3B
102
}
330
3B
100
AcDbScale
 70
     0
300
3" = 1'-0"
140
3.0
141
12.0
290
     0
  0
SCALE
  5
5B
102
{ACAD_REACTORS
330
3B
102
}
330
3B
100
AcDbScale
 70
     0
300
6" = 1'-0"
140
6.0
141
12.0
290
     0
  0
SCALE
  5
5C
102
{ACAD_REACTORS
330
3B
102
}
330
3B
100
AcDbScale
 70
     0
300
1'-0" = 1'-0"
140
12.0
141
12.0
290
     0
  0
VISUALSTYLE
  5
2F
102
{ACAD_REACTORS
330
2A
102
}
330
2A
100
AcDbVisualStyle
  2
2dWireframe
 70
     4
 71
     0
 72
     2
 73
     0
 90
        0
 40
-0.6
 41
-30.0
 62
     5
 63
     7
421
 16777215
 74
     1
 91
        4
 64
     7
 65
   257
 75
     1
175
     1
 42
1.0
 92
        0
 66
   257
 43
1.0
 76
     1
 77
     6
 78
     2
 67
     7
 79
     5
170
     0
171
     0
290
     0
174
     0
 93
        1
 44
0.0
173
     0
291
     0
 45
0.0
1001
ACAD
1000
AcDbSavedByObjectVersion
1070
     0
  0
VISUALSTYLE
  5
31
102
{ACAD_REACTORS
330
2A
102
}
330
2A
100
AcDbVisualStyle
  2
3D Hidden
 70
     6
 71
     1
 72
     2
 73
     2
 90
        0
 40
-0.6
 41
-30.0
 62
     5
 63
     7
421
 16777215
 74
     2
 91
        2
 64
     7
 65
   257
 75
     2
175
     1
 42
40.0
 92
        0
 66
   257
 43
1.0
 76
     1
 77
     6
 78
     2
 67
     7
 79
     3
170
     0
171
     0
290
     0
174
     0
 93
        1
 44
0.0
173
     0
291
     0
 45
0.0
1001
ACAD
1000
AcDbSavedByObjectVersion
1070
     0
  0
VISUALSTYLE
  5
30
102
{ACAD_REACTORS
330
2A
102
}
330
2A
100
AcDbVisualStyle
  2
3dWireframe
 70
     5
 71
     0
 72
     2
 73
     0
 90
        0
 40
-0.6
 41
-30.0
 62
     5
 63
     7
421
 16777215
 74
     1
 91
        4
 64
     7
 65
   257
 75
     1
175
     1
 42
1.0
 92
        0
 66
   257
 43
1.0
 76
     1
 77
     6
 78
     2
 67
     7
 79
     5
170
     0
171
     0
290
     0
174
     0
 93
        1
 44
0.0
173
     0
291
     0
 45
0.0
1001
ACAD
1000
AcDbSavedByObjectVersion
1070
     0
  0
VISUALSTYLE
  5
32
102
{ACAD_REACTORS
330
2A
102
}
330
2A
100
AcDbVisualStyle
  2
Basic
 70
     7
 71
     1
 72
     0
 73
     1
 90
        0
 40
-0.6
 41
-30.0
 62
     5
 63
     7
421
 16777215
 74
     0
 91
        4
 64
     7
 65
   257
 75
     1
175
     1
 42
1.0
 92
        8
 66
     7
 43
1.0
 76
     1
 77
     6
 78
     2
 67
     7
 79
     5
170
     0
171
     0
290
     0
174
     0
 93
        1
 44
0.0
173
     0
291
     1
 45
0.0
1001
ACAD
1000
AcDbSavedByObjectVersion
1070
     0
  0
VISUALSTYLE
  5
36
102
{ACAD_REACTORS
330
2A
102
}
330
2A
100
AcDbVisualStyle
  2
Brighten
 70
    12
 71
     2
 72
     2
 73
     0
 90
        0
 40
-0.6
 41
-30.0
 62
     5
 63
     7
421
 16777215
 74
     1
 91
        4
 64
     7
 65
   257
 75
     1
175
     1
 42
1.0
 92
        8
 66
     7
 43
1.0
 76
     1
 77
     6
 78
     2
 67
     7
 79
     5
170
     0
171
     0
290
     0
174
     0
 93
        1
 44
50.0
173
     0
291
     1
 45
0.0
1001
ACAD
1000
AcDbSavedByObjectVersion
1070
     0
  0
VISUALSTYLE
  5
3A
102
{ACAD_REACTORS
330
2A
102
}
330
2A
100
AcDbVisualStyle
  2
ColorChange
 70
    16
 71
     2
 72
     2
 73
     3
 90
        0
 40
-0.6
 41
-30.0
 62
     5
 63
     8
421
  8421504
 74
     1
 91
        4
 64
     7
 65
   257
 75
     1
175
     1
 42
1.0
 92
        8
 66
     8
424
  8421504
 43
1.0
 76
     1
 77
     6
 78
     2
 67
     7
 79
     5
170
     0
171
     0
290
     0
174
     0
 93
        1
 44
0.0
173
     0
291
     1
 45
0.0
1001
ACAD
1000
AcDbSavedByObjectVersion
1070
     0
  0
VISUALSTYLE
  5
34
102
{ACAD_REACTORS
330
2A
102
}
330
2A
100
AcDbVisualStyle
  2
Conceptual
 70
     9
 71
     3
 72
     2
 73
     0
 90
        0
 40
-0.6
 41
-30.0
 62
     5
 63
     7
421
 16777215
 74
     2
 91
        2
 64
     7
 65
   257
 75
     1
175
     1
 42
40.0
 92
        8
 66
     7
 43
1.0
 76
     1
 77
     6
 78
     2
 67
     7
 79
     3
170
     0
171
     0
290
     0
174
     0
 93
        1
 44
0.0
173
     0
291
     0
 45
0.0
1001
ACAD
1000
AcDbSavedByObjectVersion
1070
     0
  0
VISUALSTYLE
  5
35
102
{ACAD_REACTORS
330
2A
102
}
330
2A
100
AcDbVisualStyle
  2
Dim
 70
    11
 71
     2
 72
     2
 73
     0
 90
        0
 40
-0.6
 41
-30.0
 62
     5
 63
     7
421
 16777215
 74
     1
 91
        4
 64
     7
 65
   257
 75
     1
175
     1
 42
1.0
 92
        8
 66
     7
 43
1.0
 76
     1
 77
     6
 78
     2
 67
     7
 79
     5
170
     0
171
     0
290
     0
174
     0
 93
        1
 44
-50.0
173
     0
291
     1
 45
0.0
1001
ACAD
1000
AcDbSavedByObjectVersion
1070
     0
  0
VISUALSTYLE
  5
39
102
{ACAD_REACTORS
330
2A
102
}
330
2A
100
AcDbVisualStyle
  2
Facepattern
 70
    15
 71
     2
 72
     2
 73
     0
 90
        0
 40
-0.6
 41
-30.0
 62
     5
 63
     7
421
 16777215
 74
     1
 91
        4
 64
     7
 65
   257
 75
     1
175
     1
 42
1.0
 92
        8
 66
     7
 43
1.0
 76
     1
 77
     6
 78
     2
 67
     7
 79
     5
170
     0
171
     0
290
     0
174
     0
 93
        1
 44
0.0
173
     0
291
     1
 45
0.0
1001
ACAD
1000
AcDbSavedByObjectVersion
1070
     0
  0
VISUALSTYLE
  5
2B
102
{ACAD_REACTORS
330
2A
102
}
330
2A
100
AcDbVisualStyle
  2
Flat
 70
     0
 71
     2
 72
     1
 73
     1
 90
        2
 40
-0.6
 41
30.0
 62
     5
 63
     7
421
 16777215
 74
     0
 91
        4
 64
     7
 65
   257
 75
     1
175
     1
 42
1.0
 92
        8
 66
     7
 43
1.0
 76
     1
 77
     6
 78
     2
 67
     7
 79
     5
170
     0
171
     0
290
     0
174
     0
 93
       13
 44
0.0
173
     0
291
     1
 45
0.0
1001
ACAD
1000
AcDbSavedByObjectVersion
1070
     0
  0
VISUALSTYLE
  5
2C
102
{ACAD_REACTORS
330
2A
102
}
330
2A
100
AcDbVisualStyle
  2
FlatWithEdges
 70
     1
 71
     2
 72
     1
 73
     1
 90
        2
 40
-0.6
 41
30.0
 62
     5
 63
     7
421
 16777215
 74
     1
 91
        4
 64
     7
 65
   257
 75
     1
175
     1
 42
1.0
 92
        0
 66
   257
 43
1.0
 76
     1
 77
     6
 78
     2
 67
     7
 79
     5
170
     0
171
     0
290
     0
174
     0
 93
       13
 44
0.0
173
     0
291
     1
 45
0.0
1001
ACAD
1000
AcDbSavedByObjectVersion
1070
     0
  0
VISUALSTYLE
  5
2D
102
{ACAD_REACTORS
330
2A
102
}
330
2A
100
AcDbVisualStyle
  2
Gouraud
 70
     2
 71
     2
 72
     2
 73
     1
 90
        2
 40
-0.6
 41
30.0
 62
     5
 63
     7
421
 16777215
 74
     0
 91
        4
 64
     7
 65
   257
 75
     1
175
     1
 42
1.0
 92
        0
 66
     7
 43
1.0
 76
     1
 77
     6
 78
     2
 67
     7
 79
     5
170
     0
171
     0
290
     0
174
     0
 93
       13
 44
0.0
173
     0
291
     1
 45
0.0
1001
ACAD
1000
AcDbSavedByObjectVersion
1070
     0
  0
VISUALSTYLE
  5
2E
102
{ACAD_REACTORS
330
2A
102
}
330
2A
100
AcDbVisualStyle
  2
GouraudWithEdges
 70
     3
 71
     2
 72
     2
 73
     1
 90
        2
 40
-0.6
 41
30.0
 62
     5
 63
     7
421
 16777215
 74
     1
 91
        4
 64
     7
 65
   257
 75
     1
175
     1
 42
1.0
 92
        0
 66
   257
 43
1.0
 76
     1
 77
     6
 78
     2
 67
     7
 79
     5
170
     0
171
     0
290
     0
174
     0
 93
       13
 44
0.0
173
     0
291
     1
 45
0.0
1001
ACAD
1000
AcDbSavedByObjectVersion
1070
     0
  0
VISUALSTYLE
  5
38
102
{ACAD_REACTORS
330
2A
102
}
330
2A
100
AcDbVisualStyle
  2
Linepattern
 70
    14
 71
     2
 72
     2
 73
     0
 90
        0
 40
-0.6
 41
-30.0
 62
     5
 63
     7
421
 16777215
 74
     1
 91
        4
 64
     7
 65
   257
 75
     7
175
     7
 42
1.0
 92
        8
 66
     7
 43
1.0
 76
     1
 77
     6
 78
     2
 67
     7
 79
     5
170
     0
171
     0
290
     0
174
     0
 93
        1
 44
0.0
173
     0
291
     1
 45
0.0
1001
ACAD
1000
AcDbSavedByObjectVersion
1070
     0
  0
VISUALSTYLE
  5
33
102
{ACAD_REACTORS
330
2A
102
}
330
2A
100
AcDbVisualStyle
  2
Realistic
 70
     8
 71
     2
 72
     2
 73
     0
 90
        0
 40
-0.6
 41
-30.0
 62
     5
 63
     7
421
 16777215
 74
     1
 91
        0
 64
     7
 65
   257
 75
     1
175
     1
 42
1.0
 92
        8
 66
     8
424
  7895160
 43
1.0
 76
     1
 77
     6
 78
     2
 67
     7
 79
     5
170
     0
171
     0
290
     0
174
     0
 93
       13
 44
0.0
173
     0
291
     0
 45
0.0
1001
ACAD
1000
AcDbSavedByObjectVersion
1070
     0
  0
VISUALSTYLE
  5
37
102
{ACAD_REACTORS
330
2A
102
}
330
2A
100
AcDbVisualStyle
  2
Thicken
 70
    13
 71
     2
 72
     2
 73
     0
 90
        0
 40
-0.6
 41
-30.0
 62
     5
 63
     7
421
 16777215
 74
     1
 91
        4
 64
     7
 65
   257
 75
     1
175
     1
 42
1.0
 92
       12
 66
     7
 43
1.0
 76
     1
 77
     6
 78
     2
 67
     7
 79
     5
170
     0
171
     0
290
     0
174
     0
 93
        1
 44
0.0
173
     0
291
     1
 45
0.0
1001
ACAD
1000
AcDbSavedByObjectVersion
1070
     0
  0
ENDSEC
  0
EOF
