  0
SECTION
  2
HEADER
  9
$ACADVER
  1
AC1018
  9
$ACADMAINTVER
 70
     0
  9
$DWGCODEPAGE
  3
ANSI_1252
  9
$INSBASE
 10
0.0
 20
0.0
 30
0.0
  9
$EXTMIN
 10
1.000000000000000E+20
 20
1.000000000000000E+20
 30
1.000000000000000E+20
  9
$EXTMAX
 10
-1.000000000000000E+20
 20
-1.000000000000000E+20
 30
-1.000000000000000E+20
  9
$LIMMIN
 10
0.0
 20
0.0
  9
$LIMMAX
 10
12.0
 20
9.0
  9
$ORTHOMODE
 70
     0
  9
$REGENMODE
 70
     1
  9
$FILLMODE
 70
     1
  9
$QTEXTMODE
 70
     0
  9
$MIRRTEXT
 70
     1
  9
$LTSCALE
 40
1.0
  9
$ATTMODE
 70
     1
  9
$TEXTSIZE
 40
0.2
  9
$TRACEWID
 40
0.05
  9
$TEXTSTYLE
  7
Standard
  9
$CLAYER
  8
0
  9
$CELTYPE
  6
ByLayer
  9
$CECOLOR
 62
   256
  9
$CELTSCALE
 40
1.0
  9
$DISPSILH
 70
     0
  9
$DIMSCALE
 40
1.0
  9
$DIMASZ
 40
0.18
  9
$DIMEXO
 40
0.0625
  9
$DIMDLI
 40
0.38
  9
$DIMRND
 40
0.0
  9
$DIMDLE
 40
0.0
  9
$DIMEXE
 40
0.18
  9
$DIMTP
 40
0.0
  9
$DIMTM
 40
0.0
  9
$DIMTXT
 40
0.18
  9
$DIMCEN
 40
0.09
  9
$DIMTSZ
 40
0.0
  9
$DIMTOL
 70
     0
  9
$DIMLIM
 70
     0
  9
$DIMTIH
 70
     1
  9
$DIMTOH
 70
     1
  9
$DIMSE1
 70
     0
  9
$DIMSE2
 70
     0
  9
$DIMTAD
 70
     0
  9
$DIMZIN
 70
     0
  9
$DIMBLK
  1

  9
$DIMASO
 70
     1
  9
$DIMSHO
 70
     1
  9
$DIMPOST
  1

  9
$DIMAPOST
  1

  9
$DIMALT
 70
     0
  9
$DIMALTD
 70
     2
  9
$DIMALTF
 40
25.4
  9
$DIMLFAC
 40
1.0
  9
$DIMTOFL
 70
     0
  9
$DIMTVP
 40
0.0
  9
$DIMTIX
 70
     0
  9
$DIMSOXD
 70
     0
  9
$DIMSAH
 70
     0
  9
$DIMBLK1
  1

  9
$DIMBLK2
  1

  9
$DIMSTYLE
  2
Standard
  9
$DIMCLRD
 70
     0
  9
$DIMCLRE
 70
     0
  9
$DIMCLRT
 70
     0
  9
$DIMTFAC
 40
1.0
  9
$DIMGAP
 40
0.09
  9
$DIMJUST
 70
     0
  9
$DIMSD1
 70
     0
  9
$DIMSD2
 70
     0
  9
$DIMTOLJ
 70
     1
  9
$DIMTZIN
 70
     0
  9
$DIMALTZ
 70
     0
  9
$DIMALTTZ
 70
     0
  9
$DIMUPT
 70
     0
  9
$DIMDEC
 70
     4
  9
$DIMTDEC
 70
     4
  9
$DIMALTU
 70
     2
  9
$DIMALTTD
 70
     2
  9
$DIMTXSTY
  7
Standard
  9
$DIMAUNIT
 70
     0
  9
$DIMADEC
 70
     0
  9
$DIMALTRND
 40
0.0
  9
$DIMAZIN
 70
     0
  9
$DIMDSEP
 70
    46
  9
$DIMATFIT
 70
     3
  9
$DIMFRAC
 70
     0
  9
$DIMLDRBLK
  1

  9
$DIMLUNIT
 70
     2
  9
$DIMLWD
 70
    -2
  9
$DIMLWE
 70
    -2
  9
$DIMTMOVE
 70
     0
  9
$LUNITS
 70
     2
  9
$LUPREC
 70
     4
  9
$SKETCHINC
 40
0.1
  9
$FILLETRAD
 40
0.5
  9
$AUNITS
 70
     0
  9
$AUPREC
 70
     0
  9
$MENU
  1
.
  9
$ELEVATION
 40
0.0
  9
$PELEVATION
 40
0.0
  9
$THICKNESS
 40
0.0
  9
$LIMCHECK
 70
     0
  9
$CHAMFERA
 40
0.5
  9
$CHAMFERB
 40
0.5
  9
$CHAMFERC
 40
1.0
  9
$CHAMFERD
 40
0.0
  9
$SKPOLY
 70
     0
  9
$TDCREATE
 40
2456252.562534526
  9
$TDUCREATE
 40
2456252.520867859
  9
$TDUPDATE
 40
2456252.562534537
  9
$TDUUPDATE
 40
2456252.52086787
  9
$TDINDWG
 40
0.0000000116
  9
$TDUSRTIMER
 40
0.0000000116
  9
$USRTIMER
 70
     1
  9
$ANGBASE
 50
0.0
  9
$ANGDIR
 70
     0
  9
$PDMODE
 70
     0
  9
$PDSIZE
 40
0.0
  9
$PLINEWID
 40
0.0
  9
$SPLFRAME
 70
     0
  9
$SPLINETYPE
 70
     6
  9
$SPLINESEGS
 70
     8
  9
$HANDSEED
  5
A8
  9
$SURFTAB1
 70
     6
  9
$SURFTAB2
 70
     6
  9
$SURFTYPE
 70
     6
  9
$SURFU
 70
     6
  9
$SURFV
 70
     6
  9
$UCSBASE
  2

  9
$UCSNAME
  2

  9
$UCSORG
 10
0.0
 20
0.0
 30
0.0
  9
$UCSXDIR
 10
1.0
 20
0.0
 30
0.0
  9
$UCSYDIR
 10
0.0
 20
1.0
 30
0.0
  9
$UCSORTHOREF
  2

  9
$UCSORTHOVIEW
 70
     0
  9
$UCSORGTOP
 10
0.0
 20
0.0
 30
0.0
  9
$UCSORGBOTTOM
 10
0.0
 20
0.0
 30
0.0
  9
$UCSORGLEFT
 10
0.0
 20
0.0
 30
0.0
  9
$UCSORGRIGHT
 10
0.0
 20
0.0
 30
0.0
  9
$UCSORGFRONT
 10
0.0
 20
0.0
 30
0.0
  9
$UCSORGBACK
 10
0.0
 20
0.0
 30
0.0
  9
$PUCSBASE
  2

  9
$PUCSNAME
  2

  9
$PUCSORG
 10
0.0
 20
0.0
 30
0.0
  9
$PUCSXDIR
 10
1.0
 20
0.0
 30
0.0
  9
$PUCSYDIR
 10
0.0
 20
1.0
 30
0.0
  9
$PUCSORTHOREF
  2

  9
$PUCSORTHOVIEW
 70
     0
  9
$PUCSORGTOP
 10
0.0
 20
0.0
 30
0.0
  9
$PUCSORGBOTTOM
 10
0.0
 20
0.0
 30
0.0
  9
$PUCSORGLEFT
 10
0.0
 20
0.0
 30
0.0
  9
$PUCSORGRIGHT
 10
0.0
 20
0.0
 30
0.0
  9
$PUCSORGFRONT
 10
0.0
 20
0.0
 30
0.0
  9
$PUCSORGBACK
 10
0.0
 20
0.0
 30
0.0
  9
$USERI1
 70
     0
  9
$USERI2
 70
     0
  9
$USERI3
 70
     0
  9
$USERI4
 70
     0
  9
$USERI5
 70
     0
  9
$USERR1
 40
0.0
  9
$USERR2
 40
0.0
  9
$USERR3
 40
0.0
  9
$USERR4
 40
0.0
  9
$USERR5
 40
0.0
  9
$WORLDVIEW
 70
     1
  9
$SHADEDGE
 70
     3
  9
$SHADEDIF
 70
    70
  9
$TILEMODE
 70
     1
  9
$MAXACTVP
 70
    64
  9
$PINSBASE
 10
0.0
 20
0.0
 30
0.0
  9
$PLIMCHECK
 70
     0
  9
$PEXTMIN
 10
1.000000000000000E+20
 20
1.000000000000000E+20
 30
1.000000000000000E+20
  9
$PEXTMAX
 10
-1.000000000000000E+20
 20
-1.000000000000000E+20
 30
-1.000000000000000E+20
  9
$PLIMMIN
 10
0.0
 20
0.0
  9
$PLIMMAX
 10
12.0
 20
9.0
  9
$UNITMODE
 70
     0
  9
$VISRETAIN
 70
     1
  9
$PLINEGEN
 70
     0
  9
$PSLTSCALE
 70
     1
  9
$TREEDEPTH
 70
  3020
  9
$CMLSTYLE
  2
Standard
  9
$CMLJUST
 70
     0
  9
$CMLSCALE
 40
1.0
  9
$PROXYGRAPHICS
 70
     1
  9
$MEASUREMENT
 70
     0
  9
$CELWEIGHT
370
    -1
  9
$ENDCAPS
280
     0
  9
$JOINSTYLE
280
     0
  9
$LWDISPLAY
290
     0
  9
$INSUNITS
 70
    13
  9
$HYPERLINKBASE
  1

  9
$STYLESHEET
  1

  9
$XEDIT
290
     1
  9
$CEPSNTYPE
380
     0
  9
$PSTYLEMODE
290
     1
  9
$FINGERPRINTGUID
  2
{26C6B42B-25FA-49CC-9A22-0B3BFA3FB323}
  9
$VERSIONGUID
  2
{FAEB1C32-E019-11D5-929B-00C0DF256EC4}
  9
$EXTNAMES
290
     1
  9
$PSVPSCALE
 40
0.0
  9
$OLESTARTUP
290
     0
  9
$SORTENTS
280
   127
  9
$INDEXCTL
280
     0
  9
$HIDETEXT
280
     1
  9
$XCLIPFRAME
290
     0
  9
$HALOGAP
280
     0
  9
$OBSCOLOR
 70
   257
  9
$OBSLTYPE
280
     0
  9
$INTERSECTIONDISPLAY
280
     0
  9
$INTERSECTIONCOLOR
 70
   257
  9
$DIMASSOC
280
     2
  9
$PROJECTNAME
  1

  0
ENDSEC
  0
SECTION
  2
CLASSES
  0
CLASS
  1
ACDBDICTIONARYWDFLT
  2
AcDbDictionaryWithDefault
  3
ObjectDBX Classes
 90
        0
 91
        3
280
     0
281
     0
  0
CLASS
  1
VISUALSTYLE
  2
AcDbVisualStyle
  3
ObjectDBX Classes
 90
     4095
 91
        3
280
     0
281
     0
  0
CLASS
  1
SCALE
  2
AcDbScale
  3
ObjectDBX Classes
 90
     1153
 91
        3
280
     0
281
     0
  0
ENDSEC
  0
SECTION
  2
TABLES
  0
TABLE
  2
VPORT
  5
8
330
0
100
AcDbSymbolTable
 70
     1
  0
VPORT
  5
29
330
8
100
AcDbSymbolTableRecord
100
AcDbViewportTableRecord
  2
*Active
 70
     0
 10
0.0
 20
0.0
 11
1.0
 21
1.0
 12
10.42990654205607
 22
4.5
 13
0.0
 23
0.0
 14
0.5
 24
0.5
 15
0.5
 25
0.5
 16
0.0
 26
0.0
 36
1.0
 17
0.0
 27
0.0
 37
0.0
 40
9.0
 41
1.972972972850329
 42
50.0
 43
0.0
 44
0.0
 50
0.0
 51
0.0
 71
     0
 72
   100
 73
     1
 74
     3
 75
     0
 76
     0
 77
     0
 78
     0
281
     0
 65
     1
110
0.0
120
0.0
130
0.0
111
1.0
121
0.0
131
0.0
112
0.0
122
1.0
132
0.0
 79
     0
146
0.0
  0
ENDTAB
  0
TABLE
  2
LTYPE
  5
5
330
0
100
AcDbSymbolTable
 70
     1
  0
LTYPE
  5
14
330
5
100
AcDbSymbolTableRecord
100
AcDbLinetypeTableRecord
  2
ByBlock
 70
     0
  3

 72
    65
 73
     0
 40
0.0
  0
LTYPE
  5
15
330
5
100
AcDbSymbolTableRecord
100
AcDbLinetypeTableRecord
  2
ByLayer
 70
     0
  3

 72
    65
 73
     0
 40
0.0
  0
LTYPE
  5
16
330
5
100
AcDbSymbolTableRecord
100
AcDbLinetypeTableRecord
  2
Continuous
 70
     0
  3
Solid line
 72
    65
 73
     0
 40
0.0
  0
ENDTAB
  0
TABLE
  2
LAYER
  5
2
330
0
100
AcDbSymbolTable
 70
     2
  0
LAYER
  5
10
330
2
100
AcDbSymbolTableRecord
100
AcDbLayerTableRecord
  2
0
 70
     0
 62
     7
  6
Continuous
370
    -3
390
F
  0
LAYER
  5
5E
330
2
100
AcDbSymbolTableRecord
100
AcDbLayerTableRecord
  2
text2
 70
     0
 62
    16
420
  8388608
  6
Continuous
370
    -3
390
F
  0
ENDTAB
  0
TABLE
  2
STYLE
  5
3
330
0
100
AcDbSymbolTable
 70
     1
  0
STYLE
  5
11
330
3
100
AcDbSymbolTableRecord
100
AcDbTextStyleTableRecord
  2
Standard
 70
     0
 40
0.0
 41
1.0
 50
0.0
 71
     0
 42
0.2
  3
txt
  4

  0
ENDTAB
  0
TABLE
  2
VIEW
  5
6
330
0
100
AcDbSymbolTable
 70
     0
  0
ENDTAB
  0
TABLE
  2
UCS
  5
7
330
0
100
AcDbSymbolTable
 70
     0
  0
ENDTAB
  0
TABLE
  2
APPID
  5
9
330
0
100
AcDbSymbolTable
 70
     1
  0
APPID
  5
12
330
9
100
AcDbSymbolTableRecord
100
AcDbRegAppTableRecord
  2
ACAD
 70
     0
  0
ENDTAB
  0
TABLE
  2
DIMSTYLE
  5
A
330
0
100
AcDbSymbolTable
 70
     1
100
AcDbDimStyleTable
  0
DIMSTYLE
105
27
330
A
100
AcDbSymbolTableRecord
100
AcDbDimStyleTableRecord
  2
Standard
 70
     0
340
11
  0
ENDTAB
  0
TABLE
  2
BLOCK_RECORD
  5
1
330
0
100
AcDbSymbolTable
 70
     1
  0
BLOCK_RECORD
  5
1F
330
1
100
AcDbSymbolTableRecord
100
AcDbBlockTableRecord
  2
*Model_Space
340
22
  0
BLOCK_RECORD
  5
1B
330
1
100
AcDbSymbolTableRecord
100
AcDbBlockTableRecord
  2
*Paper_Space
340
1E
  0
BLOCK_RECORD
  5
23
330
1
100
AcDbSymbolTableRecord
100
AcDbBlockTableRecord
  2
*Paper_Space0
340
26
  0
ENDTAB
  0
ENDSEC
  0
SECTION
  2
BLOCKS
  0
BLOCK
  5
20
330
1F
100
AcDbEntity
  8
0
100
AcDbBlockBegin
  2
*Model_Space
 70
     0
 10
0.0
 20
0.0
 30
0.0
  3
*Model_Space
  1

  0
ENDBLK
  5
21
330
1F
100
AcDbEntity
  8
0
100
AcDbBlockEnd
  0
BLOCK
  5
1C
330
1B
100
AcDbEntity
 67
     1
  8
0
100
AcDbBlockBegin
  2
*Paper_Space
 70
     0
 10
0.0
 20
0.0
 30
0.0
  3
*Paper_Space
  1

  0
ENDBLK
  5
1D
330
1B
100
AcDbEntity
 67
     1
  8
0
100
AcDbBlockEnd
  0
BLOCK
  5
24
330
23
100
AcDbEntity
  8
0
100
AcDbBlockBegin
  2
*Paper_Space0
 70
     0
 10
0.0
 20
0.0
 30
0.0
  3
*Paper_Space0
  1

  0
ENDBLK
  5
25
330
23
100
AcDbEntity
  8
0
100
AcDbBlockEnd
  0
ENDSEC
  0
SECTION
  2
ENTITIES
  0
LWPOLYLINE
  5
5D
330
1F
100
AcDbEntity
  8
text2
100
AcDbPolyline
 90
       10
 70
     1
 43
0.0
 10
698.285
 20
1941.573
 10
701.857
 20
1941.573
 10
701.857
 20
1938.0
 10
691.143
 20
1938.0
 10
691.143
 20
1941.573
 10
694.715
 20
1941.573
 10
694.715
 20
1959.428
 10
691.143
 20
1959.428
 10
694.715
 20
1963.0
 10
698.285
 20
1963.0
  0
LWPOLYLINE
  5
5F
330
1F
100
AcDbEntity
  8
text2
100
AcDbPolyline
 90
        4
 70
     1
 43
0.0
 10
721.499
 20
1939.0
 10
721.499
 20
2034.0
 10
816.499
 20
2034.0
 10
816.499
 20
1939.0
  0
LWPOLYLINE
  5
60
330
1F
100
AcDbEntity
  8
text2
100
AcDbPolyline
 90
        4
 70
     1
 43
0.0
 10
871.499
 20
1932.0
 10
871.499
 20
2034.0
 10
966.499
 20
2034.0
 10
966.499
 20
1932.0
  0
LWPOLYLINE
  5
61
330
1F
100
AcDbEntity
  8
text2
100
AcDbPolyline
 90
        4
 70
     1
 43
0.0
 10
1021.499
 20
1932.0
 10
1021.499
 20
2034.0
 10
1116.499
 20
2034.0
 10
1116.499
 20
1932.0
  0
LWPOLYLINE
  5
62
330
1F
100
AcDbEntity
  8
text2
100
AcDbPolyline
 90
        4
 70
     1
 43
0.0
 10
1171.499
 20
1932.0
 10
1171.499
 20
2034.0
 10
1266.499
 20
2034.0
 10
1266.499
 20
1932.0
  0
LWPOLYLINE
  5
63
330
1F
100
AcDbEntity
  8
text2
100
AcDbPolyline
 90
        4
 70
     1
 43
0.0
 10
1321.499
 20
1932.0
 10
1321.499
 20
2034.0
 10
1416.499
 20
2034.0
 10
1416.499
 20
1932.0
  0
LWPOLYLINE
  5
64
330
1F
100
AcDbEntity
  8
text2
100
AcDbPolyline
 90
        4
 70
     1
 43
0.0
 10
1471.499
 20
1932.0
 10
1471.499
 20
2034.0
 10
1566.499
 20
2034.0
 10
1566.499
 20
1932.0
  0
LWPOLYLINE
  5
65
330
1F
100
AcDbEntity
  8
text2
100
AcDbPolyline
 90
        4
 70
     1
 43
0.0
 10
1621.499
 20
1939.0
 10
1621.499
 20
2034.0
 10
1716.499
 20
2034.0
 10
1716.499
 20
1939.0
  0
LWPOLYLINE
  5
66
330
1F
100
AcDbEntity
  8
text2
100
AcDbPolyline
 90
        4
 70
     1
 43
0.0
 10
1579.0
 20
161.0
 10
1579.0
 20
66.0
 10
1674.0
 20
66.0
 10
1674.0
 20
161.0
  0
LWPOLYLINE
  5
67
330
1F
100
AcDbEntity
  8
text2
100
AcDbPolyline
 90
        4
 70
     1
 43
0.0
 10
1729.0
 20
161.0
 10
1729.0
 20
66.0
 10
1824.0
 20
66.0
 10
1824.0
 20
161.0
  0
LWPOLYLINE
  5
68
330
1F
100
AcDbEntity
  8
text2
100
AcDbPolyline
 90
        4
 70
     1
 43
0.0
 10
1879.0
 20
161.0
 10
1879.0
 20
66.0
 10
1974.0
 20
66.0
 10
1974.0
 20
161.0
  0
LWPOLYLINE
  5
69
330
1F
100
AcDbEntity
  8
text2
100
AcDbPolyline
 90
        4
 70
     1
 43
0.0
 10
2029.0
 20
161.0
 10
2029.0
 20
66.0
 10
2124.0
 20
66.0
 10
2124.0
 20
161.0
  0
LWPOLYLINE
  5
6A
330
1F
100
AcDbEntity
  8
text2
100
AcDbPolyline
 90
        4
 70
     1
 43
0.0
 10
2179.0
 20
161.0
 10
2179.0
 20
66.0
 10
2274.0
 20
66.0
 10
2274.0
 20
161.0
  0
LWPOLYLINE
  5
6B
330
1F
100
AcDbEntity
  8
text2
100
AcDbPolyline
 90
        4
 70
     1
 43
0.0
 10
2329.0
 20
161.0
 10
2329.0
 20
66.0
 10
2424.0
 20
66.0
 10
2424.0
 20
161.0
  0
LWPOLYLINE
  5
6C
330
1F
100
AcDbEntity
  8
text2
100
AcDbPolyline
 90
        4
 70
     1
 43
0.0
 10
2479.0
 20
161.0
 10
2479.0
 20
66.0
 10
2574.0
 20
66.0
 10
2574.0
 20
161.0
  0
LWPOLYLINE
  5
6D
330
1F
100
AcDbEntity
  8
text2
100
AcDbPolyline
 90
        4
 70
     1
 43
0.0
 10
2629.0
 20
161.0
 10
2629.0
 20
66.0
 10
2724.0
 20
66.0
 10
2724.0
 20
161.0
  0
LWPOLYLINE
  5
6E
330
1F
100
AcDbEntity
  8
text2
100
AcDbPolyline
 90
        4
 70
     1
 43
0.0
 10
2779.0
 20
161.0
 10
2779.0
 20
66.0
 10
2874.0
 20
66.0
 10
2874.0
 20
161.0
  0
LWPOLYLINE
  5
6F
330
1F
100
AcDbEntity
  8
text2
100
AcDbPolyline
 90
       26
 70
     1
 43
0.0
 10
96.0
 20
1195.0
 10
96.0
 20
1272.4
 10
96.7
 20
1276.8
 10
99.10000000000001
 20
1281.5
 10
102.7
 20
1285.1
 10
107.4
 20
1287.5
 10
112.5
 20
1288.3
 10
117.6
 20
1287.5
 10
122.3
 20
1285.1
 10
125.9
 20
1281.5
 10
128.3
 20
1276.8
 10
129.0
 20
1272.4
 10
129.0
 20
1263.2
 10
151.5
 20
1228.0
 10
160.8
 20
1228.0
 10
165.2
 20
1227.3
 10
169.9
 20
1224.9
 10
173.5
 20
1221.3
 10
175.9
 20
1216.6
 10
176.7
 20
1211.5
 10
175.9
 20
1206.4
 10
173.5
 20
1201.7
 10
169.9
 20
1198.1
 10
165.2
 20
1195.7
 10
160.8
 20
1195.0
 10
144.4
 20
1195.0
  0
LWPOLYLINE
  5
70
330
1F
100
AcDbEntity
  8
text2
100
AcDbPolyline
 90
       26
 70
     1
 43
0.0
 10
144.4
 20
1055.0
 10
160.8
 20
1055.0
 10
165.2
 20
1054.3
 10
169.9
 20
1051.9
 10
173.5
 20
1048.3
 10
175.9
 20
1043.6
 10
176.7
 20
1038.5
 10
175.9
 20
1033.4
 10
173.5
 20
1028.7
 10
169.9
 20
1025.1
 10
165.2
 20
1022.7
 10
160.8
 20
1022.0
 10
151.5
 20
1022.0
 10
129.0
 20
986.8000000000001
 10
129.0
 20
977.6
 10
128.3
 20
973.2
 10
125.9
 20
968.5
 10
122.3
 20
964.9
 10
117.6
 20
962.5
 10
112.5
 20
961.7
 10
107.4
 20
962.5
 10
102.7
 20
964.9
 10
99.10000000000001
 20
968.5
 10
96.7
 20
973.2
 10
96.0
 20
977.6
 10
96.0
 20
1055.0
  0
LWPOLYLINE
  5
71
330
1F
100
AcDbEntity
  8
text2
100
AcDbPolyline
 90
        8
 70
     1
 43
0.0
 10
96.0
 20
1096.0
 10
96.0
 20
1154.0
 10
164.8
 20
1154.0
 10
194.8
 20
1141.5
 10
204.0
 20
1141.5
 10
204.0
 20
1108.5
 10
194.8
 20
1108.5
 10
164.8
 20
1096.0
  0
LWPOLYLINE
  5
72
330
1F
100
AcDbEntity
  8
text2
100
AcDbPolyline
 90
       26
 70
     1
 43
0.0
 10
2963.3
 20
1504.7
 10
2964.0
 20
1500.3
 10
2964.0
 20
1422.9
 10
2899.2
 20
1422.9
 10
2894.8
 20
1423.6
 10
2890.1
 20
1426.0
 10
2886.5
 20
1429.6
 10
2884.1
 20
1434.3
 10
2883.3
 20
1439.4
 10
2884.1
 20
1444.5
 10
2886.5
 20
1449.2
 10
2890.1
 20
1452.8
 10
2894.8
 20
1455.2
 10
2899.2
 20
1455.9
 10
2908.5
 20
1455.9
 10
2931.0
 20
1491.1
 10
2931.0
 20
1500.3
 10
2931.7
 20
1504.7
 10
2934.1
 20
1509.4
 10
2937.7
 20
1513.0
 10
2942.4
 20
1515.4
 10
2947.5
 20
1516.2
 10
2952.6
 20
1515.4
 10
2957.3
 20
1513.0
 10
2960.9
 20
1509.4
 10
2963.3
 20
1504.7
  0
LWPOLYLINE
  5
73
330
1F
100
AcDbEntity
  8
text2
100
AcDbPolyline
 90
       26
 70
     1
 43
0.0
 10
2931.0
 20
1205.5
 10
2931.0
 20
1214.7
 10
2908.5
 20
1249.9
 10
2899.2
 20
1249.9
 10
2894.8
 20
1250.6
 10
2890.1
 20
1253.0
 10
2886.5
 20
1256.6
 10
2884.1
 20
1261.3
 10
2883.3
 20
1266.4
 10
2884.1
 20
1271.5
 10
2886.5
 20
1276.2
 10
2890.1
 20
1279.8
 10
2894.8
 20
1282.2
 10
2899.2
 20
1282.9
 10
2964.0
 20
1282.9
 10
2964.0
 20
1205.5
 10
2963.3
 20
1201.1
 10
2960.9
 20
1196.4
 10
2957.3
 20
1192.8
 10
2952.6
 20
1190.4
 10
2947.5
 20
1189.6
 10
2942.4
 20
1190.4
 10
2937.7
 20
1192.8
 10
2934.1
 20
1196.4
 10
2931.7
 20
1201.1
 10
2931.0
 20
1205.5
  0
LWPOLYLINE
  5
74
330
1F
100
AcDbEntity
  8
text2
100
AcDbPolyline
 90
        9
 70
     1
 43
0.0
 10
2856.0
 20
1336.4
 10
2856.0
 20
1369.4
 10
2865.2
 20
1369.4
 10
2895.2
 20
1381.9
 10
2964.0
 20
1381.9
 10
2964.0
 20
1323.9
 10
2895.2
 20
1323.9
 10
2865.2
 20
1336.4
 10
2856.0
 20
1336.4
  0
LWPOLYLINE
  5
75
330
1F
100
AcDbEntity
  8
text2
100
AcDbPolyline
 90
       12
 70
     1
 43
0.0
 10
2841.716
 20
1559.357
 10
2841.716
 20
1584.357
 10
2856.0
 20
1584.357
 10
2859.571
 20
1580.785
 10
2859.571
 20
1573.642
 10
2856.0
 20
1570.072
 10
2850.643
 20
1570.072
 10
2859.571
 20
1561.143
 10
2859.571
 20
1559.357
 10
2856.0
 20
1559.357
 10
2845.286
 20
1570.072
 10
2845.286
 20
1559.357
  0
LWPOLYLINE
  5
76
330
1F
100
AcDbEntity
  8
text2
100
AcDbPolyline
 90
        6
 70
     1
 43
0.0
 10
2845.286
 20
1573.642
 10
2854.215
 20
1573.642
 10
2856.0
 20
1575.429
 10
2856.0
 20
1579.0
 10
2854.215
 20
1580.785
 10
2845.286
 20
1580.785
  0
LWPOLYLINE
  5
77
330
1F
100
AcDbEntity
  8
text2
100
AcDbPolyline
 90
       10
 70
     1
 43
0.0
 10
2866.715
 20
1559.357
 10
2866.715
 20
1584.357
 10
2882.785
 20
1584.357
 10
2882.785
 20
1580.785
 10
2870.286
 20
1580.785
 10
2870.286
 20
1573.642
 10
2877.428
 20
1573.642
 10
2877.428
 20
1570.072
 10
2870.286
 20
1570.072
 10
2870.286
 20
1559.357
  0
LWPOLYLINE
  5
78
330
1F
100
AcDbEntity
  8
text2
100
AcDbPolyline
 90
        8
 70
     1
 43
0.0
 10
2916.715
 20
1562.93
 10
2916.715
 20
1580.785
 10
2920.286
 20
1584.357
 10
2931.0
 20
1584.357
 10
2934.57
 20
1580.785
 10
2934.57
 20
1562.93
 10
2931.0
 20
1559.357
 10
2920.286
 20
1559.357
  0
LWPOLYLINE
  5
79
330
1F
100
AcDbEntity
  8
text2
100
AcDbPolyline
 90
        8
 70
     1
 43
0.0
 10
2922.071
 20
1562.93
 10
2929.215
 20
1562.93
 10
2931.0
 20
1564.714
 10
2931.0
 20
1579.0
 10
2929.215
 20
1580.785
 10
2922.071
 20
1580.785
 10
2920.286
 20
1579.0
 10
2920.286
 20
1564.714
  0
LWPOLYLINE
  5
7A
330
1F
100
AcDbEntity
  8
text2
100
AcDbPolyline
 90
       12
 70
     1
 43
0.0
 10
2941.715
 20
1562.93
 10
2941.715
 20
1584.357
 10
2945.286
 20
1584.357
 10
2945.286
 20
1564.714
 10
2947.071
 20
1562.93
 10
2954.215
 20
1562.93
 10
2956.0
 20
1564.714
 10
2956.0
 20
1584.357
 10
2959.571
 20
1584.357
 10
2959.571
 20
1562.93
 10
2956.0
 20
1559.357
 10
2945.286
 20
1559.357
  0
LWPOLYLINE
  5
7B
330
1F
100
AcDbEntity
  8
text2
100
AcDbPolyline
 90
        8
 70
     1
 43
0.0
 10
2973.858
 20
1559.357
 10
2973.858
 20
1580.785
 10
2966.716
 20
1580.785
 10
2966.716
 20
1584.357
 10
2984.571
 20
1584.357
 10
2984.571
 20
1580.785
 10
2977.428
 20
1580.785
 10
2977.428
 20
1559.357
  0
LWPOLYLINE
  5
7C
330
1F
100
AcDbEntity
  8
text2
100
AcDbPolyline
 90
        4
 70
     1
 43
0.0
 10
30.0
 20
0.0
 10
3030.0
 20
0.0
 10
3030.0
 20
2100.0
 10
30.0
 20
2100.0
  0
LWPOLYLINE
  5
7D
330
1F
100
AcDbEntity
  8
text2
100
AcDbPolyline
 90
       15
 70
     1
 43
0.0
 10
2924.145
 20
1614.0
 10
2924.145
 20
1624.715
 10
2952.715
 20
1646.145
 10
2952.715
 20
1653.285
 10
2949.145
 20
1656.855
 10
2934.855
 20
1656.855
 10
2931.285
 20
1653.285
 10
2924.145
 20
1656.855
 10
2931.285
 20
1664.0
 10
2952.715
 20
1664.0
 10
2959.855
 20
1656.855
 10
2959.855
 20
1642.57
 10
2931.285
 20
1621.145
 10
2959.855
 20
1621.145
 10
2959.855
 20
1614.0
  0
LWPOLYLINE
  5
7E
330
1F
100
AcDbEntity
  8
text2
100
AcDbPolyline
 90
        6
 70
     1
 43
0.0
 10
2881.285
 20
1642.57
 10
2899.145
 20
1642.57
 10
2902.715
 20
1646.145
 10
2902.715
 20
1653.285
 10
2899.145
 20
1656.855
 10
2881.285
 20
1656.855
  0
LWPOLYLINE
  5
7F
330
1F
100
AcDbEntity
  8
text2
100
AcDbPolyline
 90
        8
 70
     1
 43
0.0
 10
2874.145
 20
1614.0
 10
2874.145
 20
1664.0
 10
2902.715
 20
1664.0
 10
2909.855
 20
1656.855
 10
2909.855
 20
1642.57
 10
2902.715
 20
1635.43
 10
2881.285
 20
1635.43
 10
2881.285
 20
1614.0
  0
LWPOLYLINE
  5
80
330
1F
100
AcDbEntity
  8
text2
100
AcDbPolyline
 90
        4
 70
     1
 43
0.0
 10
149.599
 20
81.8
 10
149.599
 20
206.3
 10
347.099
 20
206.3
 10
347.099
 20
81.8
  0
LWPOLYLINE
  5
81
330
1F
100
AcDbEntity
  8
text2
100
AcDbPolyline
 90
       73
 70
     1
 43
0.0
 10
333.899
 20
151.8
 10
334.299
 20
148.6
 10
334.299
 20
143.0
 10
332.299
 20
136.6
 10
329.099
 20
130.6
 10
324.699
 20
125.0
 10
319.099
 20
119.8
 10
312.299
 20
114.6
 10
304.299
 20
110.6
 10
295.499
 20
106.6
 10
285.899
 20
103.4
 10
275.499
 20
101.0
 10
264.699
 20
99.4
 10
253.099
 20
98.2
 10
243.099
 20
98.2
 10
236.699
 20
98.60000000000001
 10
230.299
 20
99.0
 10
223.899
 20
99.4
 10
217.899
 20
100.6
 10
211.899
 20
101.8
 10
205.899
 20
103.0
 10
200.299
 20
104.6
 10
195.099
 20
106.2
 10
189.899
 20
108.2
 10
185.099
 20
110.2
 10
180.299
 20
112.6
 10
176.299
 20
114.6
 10
180.299
 20
113.0
 10
183.899
 20
111.4
 10
187.899
 20
109.8
 10
192.299
 20
108.2
 10
196.299
 20
107.0
 10
200.699
 20
106.2
 10
205.499
 20
105.0
 10
209.899
 20
104.2
 10
214.699
 20
103.8
 10
219.899
 20
103.4
 10
225.099
 20
103.0
 10
240.299
 20
103.0
 10
251.899
 20
104.2
 10
262.699
 20
105.8
 10
273.099
 20
108.2
 10
282.699
 20
111.4
 10
291.499
 20
115.4
 10
299.499
 20
119.4
 10
306.299
 20
124.2
 10
311.899
 20
129.8
 10
316.299
 20
135.4
 10
319.499
 20
141.4
 10
321.499
 20
147.8
 10
321.899
 20
153.0
 10
321.499
 20
156.2
 10
321.099
 20
159.0
 10
320.699
 20
161.8
 10
319.899
 20
164.6
 10
318.699
 20
167.4
 10
317.099
 20
170.2
 10
315.499
 20
172.6
 10
313.499
 20
175.0
 10
311.499
 20
177.4
 10
308.699
 20
179.8
 10
305.899
 20
181.8
 10
302.699
 20
184.2
 10
306.699
 20
181.8
 10
311.099
 20
179.4
 10
314.699
 20
177.0
 10
318.299
 20
174.2
 10
321.899
 20
171.4
 10
324.699
 20
168.2
 10
327.499
 20
165.0
 10
329.899
 20
162.2
 10
331.499
 20
158.6
 10
333.099
 20
155.4
  0
LWPOLYLINE
  5
82
330
1F
100
AcDbEntity
  8
text2
100
AcDbPolyline
 90
      277
 70
     1
 43
0.0
 10
266.699
 20
124.2
 10
268.299
 20
125.4
 10
269.899
 20
127.0
 10
271.499
 20
128.2
 10
272.699
 20
129.4
 10
273.499
 20
131.0
 10
274.299
 20
132.2
 10
275.899
 20
135.4
 10
276.299
 20
136.6
 10
276.299
 20
138.2
 10
276.699
 20
140.2
 10
276.699
 20
141.8
 10
276.299
 20
144.6
 10
275.099
 20
148.2
 10
273.099
 20
151.4
 10
270.299
 20
154.6
 10
267.099
 20
157.4
 10
263.099
 20
159.8
 10
262.299
 20
160.6
 10
260.299
 20
158.2
 10
257.899
 20
154.6
 10
255.499
 20
150.6
 10
253.499
 20
146.6
 10
251.899
 20
142.6
 10
250.699
 20
138.6
 10
249.899
 20
134.6
 10
249.499
 20
130.6
 10
249.899
 20
127.0
 10
250.299
 20
123.8
 10
251.499
 20
120.6
 10
251.899
 20
120.2
 10
252.699
 20
120.2
 10
258.299
 20
121.0
 10
261.099
 20
121.8
 10
263.499
 20
122.6
 10
260.699
 20
121.4
 10
257.499
 20
120.6
 10
254.299
 20
119.4
 10
252.299
 20
119.0
 10
252.699
 20
118.2
 10
255.099
 20
115.8
 10
256.699
 20
114.6
 10
258.299
 20
113.8
 10
262.299
 20
112.2
 10
266.299
 20
111.4
 10
263.899
 20
111.4
 10
261.099
 20
111.8
 10
256.299
 20
113.4
 10
253.899
 20
114.6
 10
251.499
 20
115.4
 10
249.499
 20
117.0
 10
247.899
 20
118.2
 10
247.099
 20
117.8
 10
235.099
 20
116.6
 10
227.099
 20
116.6
 10
223.099
 20
117.0
 10
218.699
 20
117.4
 10
212.299
 20
118.6
 10
205.099
 20
120.6
 10
198.299
 20
123.0
 10
191.899
 20
125.4
 10
186.299
 20
128.6
 10
181.099
 20
132.2
 10
176.299
 20
135.8
 10
172.699
 20
139.8
 10
169.499
 20
144.2
 10
167.499
 20
148.6
 10
165.899
 20
153.0
 10
165.499
 20
157.4
 10
165.899
 20
161.4
 10
166.699
 20
163.8
 10
167.499
 20
165.8
 10
168.699
 20
168.2
 10
170.299
 20
170.2
 10
174.299
 20
174.2
 10
176.699
 20
175.8
 10
179.099
 20
177.8
 10
181.899
 20
179.4
 10
187.499
 20
181.8
 10
190.699
 20
183.0
 10
185.899
 20
180.6
 10
184.299
 20
179.4
 10
182.299
 20
178.2
 10
180.699
 20
177.0
 10
177.099
 20
172.2
 10
176.299
 20
170.6
 10
175.499
 20
168.6
 10
174.699
 20
164.6
 10
174.299
 20
161.0
 10
174.699
 20
156.6
 10
175.899
 20
151.8
 10
178.299
 20
147.8
 10
181.499
 20
143.4
 10
185.099
 20
139.4
 10
189.899
 20
135.8
 10
195.099
 20
132.2
 10
200.699
 20
129.0
 10
207.099
 20
126.2
 10
213.899
 20
123.8
 10
221.099
 20
122.2
 10
227.499
 20
121.0
 10
230.699
 20
120.6
 10
234.299
 20
120.2
 10
237.499
 20
119.8
 10
245.899
 20
119.8
 10
245.099
 20
120.2
 10
241.099
 20
124.2
 10
239.499
 20
126.6
 10
236.699
 20
130.2
 10
234.299
 20
135.0
 10
233.899
 20
136.2
 10
233.499
 20
136.6
 10
232.699
 20
137.8
 10
231.499
 20
139.0
 10
230.699
 20
140.2
 10
228.299
 20
141.8
 10
227.099
 20
143.0
 10
225.899
 20
143.4
 10
223.499
 20
145.0
 10
222.299
 20
145.4
 10
220.699
 20
145.8
 10
219.099
 20
145.8
 10
217.499
 20
146.2
 10
216.299
 20
146.2
 10
214.699
 20
146.6
 10
213.099
 20
146.2
 10
211.499
 20
146.2
 10
209.899
 20
145.8
 10
208.699
 20
145.4
 10
205.499
 20
144.6
 10
204.299
 20
143.8
 10
202.699
 20
143.0
 10
201.099
 20
141.8
 10
199.899
 20
141.0
 10
202.699
 20
143.8
 10
204.699
 20
145.0
 10
206.299
 20
145.8
 10
208.299
 20
147.0
 10
209.899
 20
147.8
 10
211.899
 20
148.6
 10
213.499
 20
149.0
 10
215.499
 20
149.8
 10
217.099
 20
149.8
 10
219.099
 20
150.2
 10
221.099
 20
150.2
 10
222.699
 20
149.8
 10
224.699
 20
149.8
 10
226.299
 20
149.0
 10
228.299
 20
148.6
 10
230.699
 20
147.4
 10
230.299
 20
150.6
 10
230.299
 20
156.2
 10
230.699
 20
161.4
 10
231.899
 20
166.6
 10
232.299
 20
167.4
 10
230.299
 20
167.4
 10
224.699
 20
167.0
 10
221.899
 20
166.6
 10
219.099
 20
166.6
 10
213.499
 20
165.8
 10
211.099
 20
165.4
 10
208.299
 20
164.6
 10
205.899
 20
164.2
 10
203.899
 20
163.4
 10
201.499
 20
162.6
 10
199.099
 20
161.4
 10
197.099
 20
160.6
 10
199.499
 20
162.2
 10
202.299
 20
163.4
 10
205.099
 20
165.0
 10
207.899
 20
166.2
 10
211.099
 20
167.0
 10
214.299
 20
168.2
 10
217.499
 20
169.0
 10
221.099
 20
169.8
 10
224.299
 20
170.6
 10
231.499
 20
171.4
 10
231.499
 20
172.6
 10
230.699
 20
174.2
 10
229.899
 20
175.4
 10
229.099
 20
177.0
 10
227.499
 20
179.4
 10
223.899
 20
183.0
 10
221.499
 20
184.6
 10
219.899
 20
185.4
 10
218.699
 20
185.8
 10
217.099
 20
186.6
 10
215.899
 20
187.0
 10
214.299
 20
187.4
 10
212.699
 20
187.4
 10
211.099
 20
187.8
 10
209.499
 20
187.8
 10
207.899
 20
187.4
 10
205.899
 20
187.4
 10
204.299
 20
187.0
 10
203.899
 20
187.0
 10
206.299
 20
187.8
 10
210.299
 20
188.6
 10
218.299
 20
188.6
 10
222.299
 20
187.8
 10
223.899
 20
187.4
 10
225.499
 20
186.6
 10
227.499
 20
185.8
 10
229.099
 20
184.6
 10
230.299
 20
183.8
 10
234.699
 20
179.4
 10
235.499
 20
177.8
 10
236.299
 20
177.0
 10
238.699
 20
180.6
 10
241.899
 20
185.0
 10
245.499
 20
188.2
 10
247.499
 20
189.8
 10
249.899
 20
191.4
 10
254.699
 20
193.8
 10
261.899
 20
196.2
 10
264.299
 20
196.6
 10
271.899
 20
196.6
 10
274.699
 20
196.2
 10
272.299
 20
196.2
 10
269.899
 20
195.8
 10
267.899
 20
195.8
 10
265.899
 20
195.0
 10
263.899
 20
194.6
 10
259.899
 20
193.0
 10
258.299
 20
192.2
 10
256.699
 20
191.0
 10
255.499
 20
190.2
 10
253.899
 20
189.0
 10
250.299
 20
185.4
 10
247.899
 20
182.2
 10
243.899
 20
173.4
 10
243.499
 20
171.4
 10
249.099
 20
171.0
 10
255.099
 20
169.8
 10
260.299
 20
168.2
 10
261.899
 20
167.8
 10
264.299
 20
169.4
 10
267.099
 20
171.0
 10
269.099
 20
172.2
 10
271.499
 20
173.0
 10
273.899
 20
174.2
 10
276.299
 20
175.0
 10
278.699
 20
175.4
 10
281.499
 20
176.2
 10
286.299
 20
177.0
 10
297.499
 20
177.0
 10
299.499
 20
176.6
 10
294.299
 20
176.6
 10
292.299
 20
176.2
 10
290.299
 20
176.2
 10
288.699
 20
175.8
 10
286.699
 20
175.0
 10
284.699
 20
174.6
 10
282.699
 20
173.8
 10
280.699
 20
173.4
 10
279.099
 20
172.6
 10
277.099
 20
171.4
 10
275.099
 20
170.6
 10
273.099
 20
169.4
 10
270.699
 20
167.8
 10
267.499
 20
165.4
 10
269.899
 20
164.2
 10
273.499
 20
161.8
 10
277.099
 20
159.0
 10
279.499
 20
155.8
 10
281.499
 20
152.6
 10
282.699
 20
149.0
 10
283.099
 20
145.8
 10
283.099
 20
143.8
 10
282.699
 20
141.8
 10
281.099
 20
137.8
 10
279.899
 20
136.2
 10
276.699
 20
132.2
 10
275.099
 20
130.6
 10
273.099
 20
129.0
 10
271.099
 20
127.0
 10
269.099
 20
125.8
  0
LWPOLYLINE
  5
83
330
1F
100
AcDbEntity
  8
text2
100
AcDbPolyline
 90
        8
 70
     1
 43
0.0
 10
730.854
 20
117.715
 10
730.854
 20
146.285
 10
734.429
 20
149.855
 10
741.569
 20
149.855
 10
745.144
 20
146.285
 10
745.144
 20
117.715
 10
741.569
 20
114.145
 10
734.429
 20
114.145
  0
LWPOLYLINE
  5
84
330
1F
100
AcDbEntity
  8
text2
100
AcDbPolyline
 90
        8
 70
     1
 43
0.0
 10
723.714
 20
114.145
 10
723.714
 20
149.855
 10
730.854
 20
157.0
 10
745.144
 20
157.0
 10
752.284
 20
149.855
 10
752.284
 20
114.145
 10
745.144
 20
107.0
 10
730.854
 20
107.0
  0
LWPOLYLINE
  5
85
330
1F
100
AcDbEntity
  8
text2
100
AcDbPolyline
 90
       25
 70
     1
 43
0.0
 10
670.144
 20
114.145
 10
677.284
 20
117.715
 10
680.854
 20
114.145
 10
695.144
 20
114.145
 10
698.714
 20
117.715
 10
698.714
 20
121.285
 10
691.569
 20
128.43
 10
684.429
 20
128.43
 10
684.429
 20
135.57
 10
691.569
 20
135.57
 10
698.714
 20
142.715
 10
698.714
 20
146.285
 10
695.144
 20
149.855
 10
680.854
 20
149.855
 10
677.284
 20
146.285
 10
670.144
 20
149.855
 10
677.284
 20
157.0
 10
698.714
 20
157.0
 10
705.854
 20
149.855
 10
705.854
 20
139.145
 10
698.714
 20
132.0
 10
705.854
 20
124.855
 10
705.854
 20
114.145
 10
698.714
 20
107.0
 10
677.284
 20
107.0
  0
LWPOLYLINE
  5
86
330
1F
100
AcDbEntity
  8
text2
100
AcDbPolyline
 90
        8
 70
     1
 43
0.0
 10
630.854
 20
117.715
 10
630.854
 20
146.285
 10
634.429
 20
149.855
 10
641.569
 20
149.855
 10
645.144
 20
146.285
 10
645.144
 20
117.715
 10
641.569
 20
114.145
 10
634.429
 20
114.145
  0
LWPOLYLINE
  5
87
330
1F
100
AcDbEntity
  8
text2
100
AcDbPolyline
 90
        8
 70
     1
 43
0.0
 10
623.714
 20
114.145
 10
623.714
 20
149.855
 10
630.854
 20
157.0
 10
645.144
 20
157.0
 10
652.284
 20
149.855
 10
652.284
 20
114.145
 10
645.144
 20
107.0
 10
630.854
 20
107.0
  0
LWPOLYLINE
  5
88
330
1F
100
AcDbEntity
  8
text2
100
AcDbPolyline
 90
        8
 70
     1
 43
0.0
 10
580.854
 20
117.715
 10
580.854
 20
146.285
 10
584.429
 20
149.855
 10
591.569
 20
149.855
 10
595.144
 20
146.285
 10
595.144
 20
117.715
 10
591.569
 20
114.145
 10
584.429
 20
114.145
  0
LWPOLYLINE
  5
89
330
1F
100
AcDbEntity
  8
text2
100
AcDbPolyline
 90
        8
 70
     1
 43
0.0
 10
573.714
 20
114.145
 10
573.714
 20
149.855
 10
580.854
 20
157.0
 10
595.144
 20
157.0
 10
602.284
 20
149.855
 10
602.284
 20
114.145
 10
595.144
 20
107.0
 10
580.854
 20
107.0
  0
LWPOLYLINE
  5
8A
330
1F
100
AcDbEntity
  8
text2
100
AcDbPolyline
 90
       10
 70
     1
 43
0.0
 10
520.144
 20
107.0
 10
520.144
 20
117.715
 10
548.714
 20
149.855
 10
520.144
 20
149.855
 10
520.144
 20
157.0
 10
555.854
 20
157.0
 10
555.854
 20
146.285
 10
527.284
 20
114.145
 10
555.854
 20
114.145
 10
555.854
 20
107.0
  0
LWPOLYLINE
  5
8B
330
1F
100
AcDbEntity
  8
text2
100
AcDbPolyline
 90
        6
 70
     1
 43
0.0
 10
477.284
 20
135.57
 10
495.144
 20
135.57
 10
498.714
 20
139.145
 10
498.714
 20
146.285
 10
495.144
 20
149.855
 10
477.284
 20
149.855
  0
LWPOLYLINE
  5
8C
330
1F
100
AcDbEntity
  8
text2
100
AcDbPolyline
 90
        8
 70
     1
 43
0.0
 10
470.144
 20
107.0
 10
470.144
 20
157.0
 10
498.714
 20
157.0
 10
505.854
 20
149.855
 10
505.854
 20
135.57
 10
498.714
 20
128.43
 10
477.284
 20
128.43
 10
477.284
 20
107.0
  0
LWPOLYLINE
  5
8D
330
1F
100
AcDbEntity
  8
text2
100
AcDbPolyline
 90
        6
 70
     1
 43
0.0
 10
427.284
 20
135.57
 10
448.714
 20
135.57
 10
448.714
 20
146.285
 10
445.144
 20
149.855
 10
430.854
 20
149.855
 10
427.284
 20
146.285
  0
LWPOLYLINE
  5
8E
330
1F
100
AcDbEntity
  8
text2
100
AcDbPolyline
 90
       10
 70
     1
 43
0.0
 10
420.144
 20
107.0
 10
420.144
 20
149.855
 10
427.284
 20
157.0
 10
448.714
 20
157.0
 10
455.854
 20
149.855
 10
455.854
 20
107.0
 10
448.714
 20
107.0
 10
448.714
 20
128.43
 10
427.284
 20
128.43
 10
427.284
 20
107.0
  0
LWPOLYLINE
  5
8F
330
1F
100
AcDbEntity
  8
text2
100
AcDbPolyline
 90
        8
 70
     1
 43
0.0
 10
391.569
 20
117.715
 10
391.569
 20
124.855
 10
387.999
 20
128.43
 10
384.429
 20
128.43
 10
380.854
 20
124.855
 10
380.854
 20
117.715
 10
384.429
 20
114.145
 10
387.999
 20
114.145
  0
LWPOLYLINE
  5
90
330
1F
100
AcDbEntity
  8
text2
100
AcDbPolyline
 90
       17
 70
     1
 43
0.0
 10
395.144
 20
107.0
 10
395.144
 20
103.429
 10
391.569
 20
99.855
 10
373.714
 20
99.855
 10
373.714
 20
92.715
 10
395.144
 20
92.715
 10
402.284
 20
99.855
 10
402.284
 20
135.57
 10
395.144
 20
135.57
 10
395.144
 20
132.0
 10
391.569
 20
135.57
 10
380.854
 20
135.57
 10
373.714
 20
128.43
 10
373.714
 20
114.145
 10
380.854
 20
107.0
 10
391.569
 20
107.0
 10
395.144
 20
110.571
  0
LWPOLYLINE
  5
91
330
1F
100
AcDbEntity
  8
text2
100
AcDbPolyline
 90
       10
 70
     1
 43
0.0
 10
235.285
 20
230.0
 10
235.285
 20
237.145
 10
242.43
 20
237.145
 10
242.43
 20
272.855
 10
235.285
 20
272.855
 10
242.43
 20
280.0
 10
249.57
 20
280.0
 10
249.57
 20
237.145
 10
256.715
 20
237.145
 10
256.715
 20
230.0
  0
LWPOLYLINE
  5
92
330
1F
100
AcDbEntity
  8
text2
100
AcDbPolyline
 90
        6
 70
     1
 43
0.0
 10
185.285
 20
258.57
 10
206.715
 20
258.57
 10
206.715
 20
269.285
 10
203.145
 20
272.855
 10
188.855
 20
272.855
 10
185.285
 20
269.285
  0
LWPOLYLINE
  5
93
330
1F
100
AcDbEntity
  8
text2
100
AcDbPolyline
 90
       10
 70
     1
 43
0.0
 10
178.145
 20
230.0
 10
178.145
 20
272.855
 10
185.285
 20
280.0
 10
206.715
 20
280.0
 10
213.855
 20
272.855
 10
213.855
 20
230.0
 10
206.715
 20
230.0
 10
206.715
 20
251.43
 10
185.285
 20
251.43
 10
185.285
 20
230.0
  0
LWPOLYLINE
  5
94
330
1F
100
AcDbEntity
  8
text2
100
AcDbPolyline
 90
       10
 70
     1
 43
0.0
 10
648.285
 20
1939.0
 10
648.285
 20
1946.145
 10
655.4300000000001
 20
1946.145
 10
655.4300000000001
 20
1981.855
 10
648.285
 20
1981.855
 10
655.4300000000001
 20
1989.0
 10
662.57
 20
1989.0
 10
662.57
 20
1946.145
 10
669.715
 20
1946.145
 10
669.715
 20
1939.0
  0
LWPOLYLINE
  5
95
330
1F
100
AcDbEntity
  8
text2
100
AcDbPolyline
 90
        6
 70
     1
 43
0.0
 10
598.285
 20
1967.57
 10
616.145
 20
1967.57
 10
619.715
 20
1971.145
 10
619.715
 20
1978.285
 10
616.145
 20
1981.855
 10
598.285
 20
1981.855
  0
LWPOLYLINE
  5
96
330
1F
100
AcDbEntity
  8
text2
100
AcDbPolyline
 90
        8
 70
     1
 43
0.0
 10
591.145
 20
1939.0
 10
591.145
 20
1989.0
 10
619.715
 20
1989.0
 10
626.855
 20
1981.855
 10
626.855
 20
1967.57
 10
619.715
 20
1960.43
 10
598.285
 20
1960.43
 10
598.285
 20
1939.0
  0
LWPOLYLINE
  5
97
330
1F
100
AcDbEntity
  8
text2
100
AcDbPolyline
 90
       10
 70
     1
 43
0.0
 10
150.143
 20
1261.0
 10
150.143
 20
1264.573
 10
153.715
 20
1264.573
 10
153.715
 20
1282.428
 10
150.143
 20
1282.428
 10
153.715
 20
1286.0
 10
157.285
 20
1286.0
 10
157.285
 20
1264.573
 10
160.857
 20
1264.573
 10
160.857
 20
1261.0
  0
LWPOLYLINE
  5
98
330
1F
100
AcDbEntity
  8
text2
100
AcDbPolyline
 90
       10
 70
     1
 43
0.0
 10
197.572
 20
1310.0
 10
197.572
 20
1335.0
 10
202.928
 20
1335.0
 10
211.857
 20
1315.357
 10
211.857
 20
1335.0
 10
215.428
 20
1335.0
 10
215.428
 20
1310.0
 10
210.072
 20
1310.0
 10
201.143
 20
1329.643
 10
201.143
 20
1310.0
  0
LWPOLYLINE
  5
99
330
1F
100
AcDbEntity
  8
text2
100
AcDbPolyline
 90
       12
 70
     1
 43
0.0
 10
176.143
 20
1310.0
 10
176.143
 20
1313.573
 10
179.715
 20
1313.573
 10
179.715
 20
1331.428
 10
176.143
 20
1331.428
 10
176.143
 20
1335.0
 10
186.857
 20
1335.0
 10
186.857
 20
1331.428
 10
183.285
 20
1331.428
 10
183.285
 20
1313.573
 10
186.857
 20
1313.573
 10
186.857
 20
1310.0
  0
LWPOLYLINE
  5
9A
330
1F
100
AcDbEntity
  8
text2
100
AcDbPolyline
 90
       10
 70
     1
 43
0.0
 10
122.572
 20
1310.0
 10
122.572
 20
1335.0
 10
138.642
 20
1335.0
 10
138.642
 20
1331.428
 10
126.143
 20
1331.428
 10
126.143
 20
1324.285
 10
133.285
 20
1324.285
 10
133.285
 20
1320.715
 10
126.143
 20
1320.715
 10
126.143
 20
1310.0
  0
LWPOLYLINE
  5
9B
330
1F
100
AcDbEntity
  8
text2
100
AcDbPolyline
 90
        6
 70
     1
 43
0.0
 10
101.143
 20
1324.285
 10
110.072
 20
1324.285
 10
111.857
 20
1326.072
 10
111.857
 20
1329.643
 10
110.072
 20
1331.428
 10
101.143
 20
1331.428
  0
LWPOLYLINE
  5
9C
330
1F
100
AcDbEntity
  8
text2
100
AcDbPolyline
 90
       12
 70
     1
 43
0.0
 10
97.57300000000001
 20
1310.0
 10
97.57300000000001
 20
1335.0
 10
111.857
 20
1335.0
 10
115.428
 20
1331.428
 10
115.428
 20
1324.285
 10
111.857
 20
1320.715
 10
106.5
 20
1320.715
 10
115.428
 20
1311.786
 10
115.428
 20
1310.0
 10
111.857
 20
1310.0
 10
101.143
 20
1320.715
 10
101.143
 20
1310.0
  0
LWPOLYLINE
  5
9D
330
1F
100
AcDbEntity
  8
text2
100
AcDbPolyline
 90
        3
 70
     1
 43
0.0
 10
168.57
 20
1378.0
 10
154.285
 20
1378.0
 10
168.57
 20
1392.285
  0
LWPOLYLINE
  5
9E
330
1F
100
AcDbEntity
  8
text2
100
AcDbPolyline
 90
       11
 70
     1
 43
0.0
 10
168.57
 20
1353.0
 10
168.57
 20
1370.855
 10
147.145
 20
1370.855
 10
147.145
 20
1378.0
 10
168.57
 20
1403.0
 10
175.715
 20
1403.0
 10
175.715
 20
1378.0
 10
182.855
 20
1378.0
 10
182.855
 20
1370.855
 10
175.715
 20
1370.855
 10
175.715
 20
1353.0
  0
LWPOLYLINE
  5
9F
330
1F
100
AcDbEntity
  8
text2
100
AcDbPolyline
 90
        6
 70
     1
 43
0.0
 10
104.285
 20
1381.57
 10
122.145
 20
1381.57
 10
125.715
 20
1385.145
 10
125.715
 20
1392.285
 10
122.145
 20
1395.855
 10
104.285
 20
1395.855
  0
LWPOLYLINE
  5
A0
330
1F
100
AcDbEntity
  8
text2
100
AcDbPolyline
 90
        8
 70
     1
 43
0.0
 10
97.145
 20
1353.0
 10
97.145
 20
1403.0
 10
125.715
 20
1403.0
 10
132.855
 20
1395.855
 10
132.855
 20
1381.57
 10
125.715
 20
1374.43
 10
104.285
 20
1374.43
 10
104.285
 20
1353.0
  0
LWPOLYLINE
  5
A1
330
1F
100
AcDbEntity
  8
text2
100
AcDbPolyline
 90
       10
 70
     1
 43
0.0
 10
2894.286
 20
1510.357
 10
2894.286
 20
1513.93
 10
2897.858
 20
1513.93
 10
2897.858
 20
1531.785
 10
2894.286
 20
1531.785
 10
2897.858
 20
1535.357
 10
2901.428
 20
1535.357
 10
2901.428
 20
1513.93
 10
2905.0
 20
1513.93
 10
2905.0
 20
1510.357
  0
LWPOLYLINE
  5
A2
330
1F
100
AcDbEntity
  8
text2
100
AcDbPolyline
 90
       10
 70
     1
 43
0.0
 10
1533.428
 20
72.572
 10
1533.428
 20
76.145
 10
1537.0
 20
76.145
 10
1537.0
 20
94.0
 10
1533.428
 20
94.0
 10
1537.0
 20
97.572
 10
1540.57
 20
97.572
 10
1540.57
 20
76.145
 10
1544.142
 20
76.145
 10
1544.142
 20
72.572
  0
LWPOLYLINE
  5
A3
330
1F
100
AcDbEntity
  8
text2
100
AcDbPolyline
 90
       25
 70
     1
 43
0.0
 10
1452.145
 20
80.145
 10
1459.285
 20
83.715
 10
1462.855
 20
80.145
 10
1477.145
 20
80.145
 10
1480.715
 20
83.715
 10
1480.715
 20
87.285
 10
1473.57
 20
94.43
 10
1466.43
 20
94.43
 10
1466.43
 20
101.57
 10
1473.57
 20
101.57
 10
1480.715
 20
108.715
 10
1480.715
 20
112.285
 10
1477.145
 20
115.855
 10
1462.855
 20
115.855
 10
1459.285
 20
112.285
 10
1452.145
 20
115.855
 10
1459.285
 20
123.0
 10
1480.715
 20
123.0
 10
1487.855
 20
115.855
 10
1487.855
 20
105.145
 10
1480.715
 20
98.0
 10
1487.855
 20
90.855
 10
1487.855
 20
80.145
 10
1480.715
 20
73.0
 10
1459.285
 20
73.0
  0
LWPOLYLINE
  5
A4
330
1F
100
AcDbEntity
  8
text2
100
AcDbPolyline
 90
        6
 70
     1
 43
0.0
 10
1409.285
 20
101.57
 10
1427.145
 20
101.57
 10
1430.715
 20
105.145
 10
1430.715
 20
112.285
 10
1427.145
 20
115.855
 10
1409.285
 20
115.855
  0
LWPOLYLINE
  5
A5
330
1F
100
AcDbEntity
  8
text2
100
AcDbPolyline
 90
        8
 70
     1
 43
0.0
 10
1402.145
 20
73.0
 10
1402.145
 20
123.0
 10
1430.715
 20
123.0
 10
1437.855
 20
115.855
 10
1437.855
 20
101.57
 10
1430.715
 20
94.43
 10
1409.285
 20
94.43
 10
1409.285
 20
73.0
  0
ENDSEC
  0
SECTION
  2
OBJECTS
  0
DICTIONARY
  5
C
330
0
100
AcDbDictionary
281
     1
  3
ACAD_GROUP
350
D
  3
ACAD_LAYOUT
350
1A
  3
ACAD_MLEADERSTYLE
350
A7
  3
ACAD_MLINESTYLE
350
17
  3
ACAD_PLOTSETTINGS
350
19
  3
ACAD_PLOTSTYLENAME
350
E
  3
ACAD_SCALELIST
350
3B
  3
ACAD_TABLESTYLE
350
A6
  3
ACAD_VISUALSTYLE
350
2A
  0
DICTIONARY
  5
D
102
{ACAD_REACTORS
330
C
102
}
330
C
100
AcDbDictionary
281
     1
  0
DICTIONARY
  5
1A
102
{ACAD_REACTORS
330
C
102
}
330
C
100
AcDbDictionary
281
     1
  3
Layout1
350
1E
  3
Layout2
350
26
  3
Model
350
22
  0
DICTIONARY
  5
A7
102
{ACAD_REACTORS
330
C
102
}
330
C
100
AcDbDictionary
281
     1
  0
DICTIONARY
  5
17
102
{ACAD_REACTORS
330
C
102
}
330
C
100
AcDbDictionary
281
     1
  3
Standard
350
18
  0
DICTIONARY
  5
19
102
{ACAD_REACTORS
330
C
102
}
330
C
100
AcDbDictionary
281
     1
  0
ACDBDICTIONARYWDFLT
  5
E
102
{ACAD_REACTORS
330
C
102
}
330
C
100
AcDbDictionary
281
     1
  3
Normal
350
F
100
AcDbDictionaryWithDefault
340
F
  0
DICTIONARY
  5
3B
102
{ACAD_REACTORS
330
C
102
}
330
C
100
AcDbDictionary
281
     1
  3
A0
350
3C
  3
A1
350
3D
  3
A2
350
3E
  3
A3
350
3F
  3
A4
350
40
  3
A5
350
41
  3
A6
350
42
  3
A7
350
43
  3
A8
350
44
  3
A9
350
45
  3
B0
350
46
  3
B1
350
47
  3
B2
350
48
  3
B3
350
49
  3
B4
350
4A
  3
B5
350
4B
  3
B6
350
4C
  3
B7
350
4D
  3
B8
350
4E
  3
B9
350
4F
  3
C0
350
50
  3
C1
350
51
  3
C2
350
52
  3
C3
350
53
  3
C4
350
54
  3
C5
350
55
  3
C6
350
56
  3
C7
350
57
  3
C8
350
58
  3
C9
350
59
  3
D0
350
5A
  3
D1
350
5B
  3
D2
350
5C
  0
DICTIONARY
  5
A6
102
{ACAD_REACTORS
330
C
102
}
330
C
100
AcDbDictionary
281
     1
  0
DICTIONARY
  5
2A
102
{ACAD_REACTORS
330
C
102
}
330
C
100
AcDbDictionary
281
     1
  3
2dWireframe
350
2F
  3
3D Hidden
350
31
  3
3dWireframe
350
30
  3
Basic
350
32
  3
Brighten
350
36
  3
ColorChange
350
3A
  3
Conceptual
350
34
  3
Dim
350
35
  3
Facepattern
350
39
  3
Flat
350
2B
  3
FlatWithEdges
350
2C
  3
Gouraud
350
2D
  3
GouraudWithEdges
350
2E
  3
Linepattern
350
38
  3
Realistic
350
33
  3
Thicken
350
37
  0
LAYOUT
  5
1E
102
{ACAD_REACTORS
330
1A
102
}
330
1A
100
AcDbPlotSettings
  1

  2
none_device
  4

  6

 40
0.0
 41
0.0
 42
0.0
 43
0.0
 44
0.0
 45
0.0
 46
0.0
 47
0.0
 48
0.0
 49
0.0
140
0.0
141
0.0
142
1.0
143
1.0
 70
   688
 72
     0
 73
     0
 74
     5
  7

 75
    16
 76
     0
 77
     2
 78
   300
147
1.0
148
0.0
149
0.0
100
AcDbLayout
  1
Layout1
 70
     1
 71
     1
 10
0.0
 20
0.0
 11
12.0
 21
9.0
 12
0.0
 22
0.0
 32
0.0
 14
1.000000000000000E+20
 24
1.000000000000000E+20
 34
1.000000000000000E+20
 15
-1.000000000000000E+20
 25
-1.000000000000000E+20
 35
-1.000000000000000E+20
146
0.0
 13
0.0
 23
0.0
 33
0.0
 16
1.0
 26
0.0
 36
0.0
 17
0.0
 27
1.0
 37
0.0
 76
     0
330
1B
  0
LAYOUT
  5
26
102
{ACAD_REACTORS
330
1A
102
}
330
1A
100
AcDbPlotSettings
  1

  2
none_device
  4

  6

 40
0.0
 41
0.0
 42
0.0
 43
0.0
 44
0.0
 45
0.0
 46
0.0
 47
0.0
 48
0.0
 49
0.0
140
0.0
141
0.0
142
1.0
143
1.0
 70
   688
 72
     0
 73
     0
 74
     5
  7

 75
    16
 76
     0
 77
     2
 78
   300
147
1.0
148
0.0
149
0.0
100
AcDbLayout
  1
Layout2
 70
     1
 71
     2
 10
0.0
 20
0.0
 11
0.0
 21
0.0
 12
0.0
 22
0.0
 32
0.0
 14
0.0
 24
0.0
 34
0.0
 15
0.0
 25
0.0
 35
0.0
146
0.0
 13
0.0
 23
0.0
 33
0.0
 16
1.0
 26
0.0
 36
0.0
 17
0.0
 27
1.0
 37
0.0
 76
     0
330
23
  0
LAYOUT
  5
22
102
{ACAD_REACTORS
330
1A
102
}
330
1A
100
AcDbPlotSettings
  1

  2
none_device
  4

  6

 40
0.0
 41
0.0
 42
0.0
 43
0.0
 44
0.0
 45
0.0
 46
0.0
 47
0.0
 48
0.0
 49
0.0
140
0.0
141
0.0
142
1.0
143
1.0
 70
  1712
 72
     0
 73
     0
 74
     0
  7

 75
     0
 76
     0
 77
     2
 78
   300
147
1.0
148
0.0
149
0.0
100
AcDbLayout
  1
Model
 70
     1
 71
     0
 10
0.0
 20
0.0
 11
12.0
 21
9.0
 12
0.0
 22
0.0
 32
0.0
 14
1.000000000000000E+20
 24
1.000000000000000E+20
 34
1.000000000000000E+20
 15
-1.000000000000000E+20
 25
-1.000000000000000E+20
 35
-1.000000000000000E+20
146
0.0
 13
0.0
 23
0.0
 33
0.0
 16
1.0
 26
0.0
 36
0.0
 17
0.0
 27
1.0
 37
0.0
 76
     0
330
1F
331
29
  0
MLINESTYLE
  5
18
102
{ACAD_REACTORS
330
17
102
}
330
17
100
AcDbMlineStyle
  2
Standard
 70
     0
  3

 62
   256
 51
90.0
 52
90.0
 71
     2
 49
0.5
 62
   256
  6
BYLAYER
 49
-0.5
 62
   256
  6
BYLAYER
  0
ACDBPLACEHOLDER
  5
F
102
{ACAD_REACTORS
330
E
102
}
330
E
  0
SCALE
  5
3C
102
{ACAD_REACTORS
330
3B
102
}
330
3B
100
AcDbScale
 70
     0
300
1:1
140
1.0
141
1.0
290
     1
  0
SCALE
  5
3D
102
{ACAD_REACTORS
330
3B
102
}
330
3B
100
AcDbScale
 70
     0
300
1:2
140
1.0
141
2.0
290
     0
  0
SCALE
  5
3E
102
{ACAD_REACTORS
330
3B
102
}
330
3B
100
AcDbScale
 70
     0
300
1:4
140
1.0
141
4.0
290
     0
  0
SCALE
  5
3F
102
{ACAD_REACTORS
330
3B
102
}
330
3B
100
AcDbScale
 70
     0
300
1:5
140
1.0
141
5.0
290
     0
  0
SCALE
  5
40
102
{ACAD_REACTORS
330
3B
102
}
330
3B
100
AcDbScale
 70
     0
300
1:8
140
1.0
141
8.0
290
     0
  0
SCALE
  5
41
102
{ACAD_REACTORS
330
3B
102
}
330
3B
100
AcDbScale
 70
     0
300
1:10
140
1.0
141
10.0
290
     0
  0
SCALE
  5
42
102
{ACAD_REACTORS
330
3B
102
}
330
3B
100
AcDbScale
 70
     0
300
1:16
140
1.0
141
16.0
290
     0
  0
SCALE
  5
43
102
{ACAD_REACTORS
330
3B
102
}
330
3B
100
AcDbScale
 70
     0
300
1:20
140
1.0
141
20.0
290
     0
  0
SCALE
  5
44
102
{ACAD_REACTORS
330
3B
102
}
330
3B
100
AcDbScale
 70
     0
300
1:30
140
1.0
141
30.0
290
     0
  0
SCALE
  5
45
102
{ACAD_REACTORS
330
3B
102
}
330
3B
100
AcDbScale
 70
     0
300
1:40
140
1.0
141
40.0
290
     0
  0
SCALE
  5
46
102
{ACAD_REACTORS
330
3B
102
}
330
3B
100
AcDbScale
 70
     0
300
1:50
140
1.0
141
50.0
290
     0
  0
SCALE
  5
47
102
{ACAD_REACTORS
330
3B
102
}
330
3B
100
AcDbScale
 70
     0
300
1:100
140
1.0
141
100.0
290
     0
  0
SCALE
  5
48
102
{ACAD_REACTORS
330
3B
102
}
330
3B
100
AcDbScale
 70
     0
300
2:1
140
2.0
141
1.0
290
     0
  0
SCALE
  5
49
102
{ACAD_REACTORS
330
3B
102
}
330
3B
100
AcDbScale
 70
     0
300
4:1
140
4.0
141
1.0
290
     0
  0
SCALE
  5
4A
102
{ACAD_REACTORS
330
3B
102
}
330
3B
100
AcDbScale
 70
     0
300
8:1
140
8.0
141
1.0
290
     0
  0
SCALE
  5
4B
102
{ACAD_REACTORS
330
3B
102
}
330
3B
100
AcDbScale
 70
     0
300
10:1
140
10.0
141
1.0
290
     0
  0
SCALE
  5
4C
102
{ACAD_REACTORS
330
3B
102
}
330
3B
100
AcDbScale
 70
     0
300
100:1
140
100.0
141
1.0
290
     0
  0
SCALE
  5
4D
102
{ACAD_REACTORS
330
3B
102
}
330
3B
100
AcDbScale
 70
     0
300
1/128" = 1'-0"
140
0.0078125
141
12.0
290
     0
  0
SCALE
  5
4E
102
{ACAD_REACTORS
330
3B
102
}
330
3B
100
AcDbScale
 70
     0
300
1/64" = 1'-0"
140
0.015625
141
12.0
290
     0
  0
SCALE
  5
4F
102
{ACAD_REACTORS
330
3B
102
}
330
3B
100
AcDbScale
 70
     0
300
1/32" = 1'-0"
140
0.03125
141
12.0
290
     0
  0
SCALE
  5
50
102
{ACAD_REACTORS
330
3B
102
}
330
3B
100
AcDbScale
 70
     0
300
1/16" = 1'-0"
140
0.0625
141
12.0
290
     0
  0
SCALE
  5
51
102
{ACAD_REACTORS
330
3B
102
}
330
3B
100
AcDbScale
 70
     0
300
3/32" = 1'-0"
140
0.09375
141
12.0
290
     0
  0
SCALE
  5
52
102
{ACAD_REACTORS
330
3B
102
}
330
3B
100
AcDbScale
 70
     0
300
1/8" = 1'-0"
140
0.125
141
12.0
290
     0
  0
SCALE
  5
53
102
{ACAD_REACTORS
330
3B
102
}
330
3B
100
AcDbScale
 70
     0
300
3/16" = 1'-0"
140
0.1875
141
12.0
290
     0
  0
SCALE
  5
54
102
{ACAD_REACTORS
330
3B
102
}
330
3B
100
AcDbScale
 70
     0
300
1/4" = 1'-0"
140
0.25
141
12.0
290
     0
  0
SCALE
  5
55
102
{ACAD_REACTORS
330
3B
102
}
330
3B
100
AcDbScale
 70
     0
300
3/8" = 1'-0"
140
0.375
141
12.0
290
     0
  0
SCALE
  5
56
102
{ACAD_REACTORS
330
3B
102
}
330
3B
100
AcDbScale
 70
     0
300
1/2" = 1'-0"
140
0.5
141
12.0
290
     0
  0
SCALE
  5
57
102
{ACAD_REACTORS
330
3B
102
}
330
3B
100
AcDbScale
 70
     0
300
3/4" = 1'-0"
140
0.75
141
12.0
290
     0
  0
SCALE
  5
58
102
{ACAD_REACTORS
330
3B
102
}
330
3B
100
AcDbScale
 70
     0
300
1" = 1'-0"
140
1.0
141
12.0
290
     0
  0
SCALE
  5
59
102
{ACAD_REACTORS
330
3B
102
}
330
3B
100
AcDbScale
 70
     0
300
1-1/2" = 1'-0"
140
1.5
141
12.0
290
     0
  0
SCALE
  5
5A
102
{ACAD_REACTORS
330
3B
102
}
330
3B
100
AcDbScale
 70
     0
300
3" = 1'-0"
140
3.0
141
12.0
290
     0
  0
SCALE
  5
5B
102
{ACAD_REACTORS
330
3B
102
}
330
3B
100
AcDbScale
 70
     0
300
6" = 1'-0"
140
6.0
141
12.0
290
     0
  0
SCALE
  5
5C
102
{ACAD_REACTORS
330
3B
102
}
330
3B
100
AcDbScale
 70
     0
300
1'-0" = 1'-0"
140
12.0
141
12.0
290
     0
  0
VISUALSTYLE
  5
2F
102
{ACAD_REACTORS
330
2A
102
}
330
2A
100
AcDbVisualStyle
  2
2dWireframe
 70
     4
 71
     0
 72
     2
 73
     0
 90
        0
 40
-0.6
 41
-30.0
 62
     5
 63
     7
421
 16777215
 74
     1
 91
        4
 64
     7
 65
   257
 75
     1
175
     1
 42
1.0
 92
        0
 66
   257
 43
1.0
 76
     1
 77
     6
 78
     2
 67
     7
 79
     5
170
     0
171
     0
290
     0
174
     0
 93
        1
 44
0.0
173
     0
291
     0
 45
0.0
1001
ACAD
1000
AcDbSavedByObjectVersion
1070
     0
  0
VISUALSTYLE
  5
31
102
{ACAD_REACTORS
330
2A
102
}
330
2A
100
AcDbVisualStyle
  2
3D Hidden
 70
     6
 71
     1
 72
     2
 73
     2
 90
        0
 40
-0.6
 41
-30.0
 62
     5
 63
     7
421
 16777215
 74
     2
 91
        2
 64
     7
 65
   257
 75
     2
175
     1
 42
40.0
 92
        0
 66
   257
 43
1.0
 76
     1
 77
     6
 78
     2
 67
     7
 79
     3
170
     0
171
     0
290
     0
174
     0
 93
        1
 44
0.0
173
     0
291
     0
 45
0.0
1001
ACAD
1000
AcDbSavedByObjectVersion
1070
     0
  0
VISUALSTYLE
  5
30
102
{ACAD_REACTORS
330
2A
102
}
330
2A
100
AcDbVisualStyle
  2
3dWireframe
 70
     5
 71
     0
 72
     2
 73
     0
 90
        0
 40
-0.6
 41
-30.0
 62
     5
 63
     7
421
 16777215
 74
     1
 91
        4
 64
     7
 65
   257
 75
     1
175
     1
 42
1.0
 92
        0
 66
   257
 43
1.0
 76
     1
 77
     6
 78
     2
 67
     7
 79
     5
170
     0
171
     0
290
     0
174
     0
 93
        1
 44
0.0
173
     0
291
     0
 45
0.0
1001
ACAD
1000
AcDbSavedByObjectVersion
1070
     0
  0
VISUALSTYLE
  5
32
102
{ACAD_REACTORS
330
2A
102
}
330
2A
100
AcDbVisualStyle
  2
Basic
 70
     7
 71
     1
 72
     0
 73
     1
 90
        0
 40
-0.6
 41
-30.0
 62
     5
 63
     7
421
 16777215
 74
     0
 91
        4
 64
     7
 65
   257
 75
     1
175
     1
 42
1.0
 92
        8
 66
     7
 43
1.0
 76
     1
 77
     6
 78
     2
 67
     7
 79
     5
170
     0
171
     0
290
     0
174
     0
 93
        1
 44
0.0
173
     0
291
     1
 45
0.0
1001
ACAD
1000
AcDbSavedByObjectVersion
1070
     0
  0
VISUALSTYLE
  5
36
102
{ACAD_REACTORS
330
2A
102
}
330
2A
100
AcDbVisualStyle
  2
Brighten
 70
    12
 71
     2
 72
     2
 73
     0
 90
        0
 40
-0.6
 41
-30.0
 62
     5
 63
     7
421
 16777215
 74
     1
 91
        4
 64
     7
 65
   257
 75
     1
175
     1
 42
1.0
 92
        8
 66
     7
 43
1.0
 76
     1
 77
     6
 78
     2
 67
     7
 79
     5
170
     0
171
     0
290
     0
174
     0
 93
        1
 44
50.0
173
     0
291
     1
 45
0.0
1001
ACAD
1000
AcDbSavedByObjectVersion
1070
     0
  0
VISUALSTYLE
  5
3A
102
{ACAD_REACTORS
330
2A
102
}
330
2A
100
AcDbVisualStyle
  2
ColorChange
 70
    16
 71
     2
 72
     2
 73
     3
 90
        0
 40
-0.6
 41
-30.0
 62
     5
 63
     8
421
  8421504
 74
     1
 91
        4
 64
     7
 65
   257
 75
     1
175
     1
 42
1.0
 92
        8
 66
     8
424
  8421504
 43
1.0
 76
     1
 77
     6
 78
     2
 67
     7
 79
     5
170
     0
171
     0
290
     0
174
     0
 93
        1
 44
0.0
173
     0
291
     1
 45
0.0
1001
ACAD
1000
AcDbSavedByObjectVersion
1070
     0
  0
VISUALSTYLE
  5
34
102
{ACAD_REACTORS
330
2A
102
}
330
2A
100
AcDbVisualStyle
  2
Conceptual
 70
     9
 71
     3
 72
     2
 73
     0
 90
        0
 40
-0.6
 41
-30.0
 62
     5
 63
     7
421
 16777215
 74
     2
 91
        2
 64
     7
 65
   257
 75
     1
175
     1
 42
40.0
 92
        8
 66
     7
 43
1.0
 76
     1
 77
     6
 78
     2
 67
     7
 79
     3
170
     0
171
     0
290
     0
174
     0
 93
        1
 44
0.0
173
     0
291
     0
 45
0.0
1001
ACAD
1000
AcDbSavedByObjectVersion
1070
     0
  0
VISUALSTYLE
  5
35
102
{ACAD_REACTORS
330
2A
102
}
330
2A
100
AcDbVisualStyle
  2
Dim
 70
    11
 71
     2
 72
     2
 73
     0
 90
        0
 40
-0.6
 41
-30.0
 62
     5
 63
     7
421
 16777215
 74
     1
 91
        4
 64
     7
 65
   257
 75
     1
175
     1
 42
1.0
 92
        8
 66
     7
 43
1.0
 76
     1
 77
     6
 78
     2
 67
     7
 79
     5
170
     0
171
     0
290
     0
174
     0
 93
        1
 44
-50.0
173
     0
291
     1
 45
0.0
1001
ACAD
1000
AcDbSavedByObjectVersion
1070
     0
  0
VISUALSTYLE
  5
39
102
{ACAD_REACTORS
330
2A
102
}
330
2A
100
AcDbVisualStyle
  2
Facepattern
 70
    15
 71
     2
 72
     2
 73
     0
 90
        0
 40
-0.6
 41
-30.0
 62
     5
 63
     7
421
 16777215
 74
     1
 91
        4
 64
     7
 65
   257
 75
     1
175
     1
 42
1.0
 92
        8
 66
     7
 43
1.0
 76
     1
 77
     6
 78
     2
 67
     7
 79
     5
170
     0
171
     0
290
     0
174
     0
 93
        1
 44
0.0
173
     0
291
     1
 45
0.0
1001
ACAD
1000
AcDbSavedByObjectVersion
1070
     0
  0
VISUALSTYLE
  5
2B
102
{ACAD_REACTORS
330
2A
102
}
330
2A
100
AcDbVisualStyle
  2
Flat
 70
     0
 71
     2
 72
     1
 73
     1
 90
        2
 40
-0.6
 41
30.0
 62
     5
 63
     7
421
 16777215
 74
     0
 91
        4
 64
     7
 65
   257
 75
     1
175
     1
 42
1.0
 92
        8
 66
     7
 43
1.0
 76
     1
 77
     6
 78
     2
 67
     7
 79
     5
170
     0
171
     0
290
     0
174
     0
 93
       13
 44
0.0
173
     0
291
     1
 45
0.0
1001
ACAD
1000
AcDbSavedByObjectVersion
1070
     0
  0
VISUALSTYLE
  5
2C
102
{ACAD_REACTORS
330
2A
102
}
330
2A
100
AcDbVisualStyle
  2
FlatWithEdges
 70
     1
 71
     2
 72
     1
 73
     1
 90
        2
 40
-0.6
 41
30.0
 62
     5
 63
     7
421
 16777215
 74
     1
 91
        4
 64
     7
 65
   257
 75
     1
175
     1
 42
1.0
 92
        0
 66
   257
 43
1.0
 76
     1
 77
     6
 78
     2
 67
     7
 79
     5
170
     0
171
     0
290
     0
174
     0
 93
       13
 44
0.0
173
     0
291
     1
 45
0.0
1001
ACAD
1000
AcDbSavedByObjectVersion
1070
     0
  0
VISUALSTYLE
  5
2D
102
{ACAD_REACTORS
330
2A
102
}
330
2A
100
AcDbVisualStyle
  2
Gouraud
 70
     2
 71
     2
 72
     2
 73
     1
 90
        2
 40
-0.6
 41
30.0
 62
     5
 63
     7
421
 16777215
 74
     0
 91
        4
 64
     7
 65
   257
 75
     1
175
     1
 42
1.0
 92
        0
 66
     7
 43
1.0
 76
     1
 77
     6
 78
     2
 67
     7
 79
     5
170
     0
171
     0
290
     0
174
     0
 93
       13
 44
0.0
173
     0
291
     1
 45
0.0
1001
ACAD
1000
AcDbSavedByObjectVersion
1070
     0
  0
VISUALSTYLE
  5
2E
102
{ACAD_REACTORS
330
2A
102
}
330
2A
100
AcDbVisualStyle
  2
GouraudWithEdges
 70
     3
 71
     2
 72
     2
 73
     1
 90
        2
 40
-0.6
 41
30.0
 62
     5
 63
     7
421
 16777215
 74
     1
 91
        4
 64
     7
 65
   257
 75
     1
175
     1
 42
1.0
 92
        0
 66
   257
 43
1.0
 76
     1
 77
     6
 78
     2
 67
     7
 79
     5
170
     0
171
     0
290
     0
174
     0
 93
       13
 44
0.0
173
     0
291
     1
 45
0.0
1001
ACAD
1000
AcDbSavedByObjectVersion
1070
     0
  0
VISUALSTYLE
  5
38
102
{ACAD_REACTORS
330
2A
102
}
330
2A
100
AcDbVisualStyle
  2
Linepattern
 70
    14
 71
     2
 72
     2
 73
     0
 90
        0
 40
-0.6
 41
-30.0
 62
     5
 63
     7
421
 16777215
 74
     1
 91
        4
 64
     7
 65
   257
 75
     7
175
     7
 42
1.0
 92
        8
 66
     7
 43
1.0
 76
     1
 77
     6
 78
     2
 67
     7
 79
     5
170
     0
171
     0
290
     0
174
     0
 93
        1
 44
0.0
173
     0
291
     1
 45
0.0
1001
ACAD
1000
AcDbSavedByObjectVersion
1070
     0
  0
VISUALSTYLE
  5
33
102
{ACAD_REACTORS
330
2A
102
}
330
2A
100
AcDbVisualStyle
  2
Realistic
 70
     8
 71
     2
 72
     2
 73
     0
 90
        0
 40
-0.6
 41
-30.0
 62
     5
 63
     7
421
 16777215
 74
     1
 91
        0
 64
     7
 65
   257
 75
     1
175
     1
 42
1.0
 92
        8
 66
     8
424
  7895160
 43
1.0
 76
     1
 77
     6
 78
     2
 67
     7
 79
     5
170
     0
171
     0
290
     0
174
     0
 93
       13
 44
0.0
173
     0
291
     0
 45
0.0
1001
ACAD
1000
AcDbSavedByObjectVersion
1070
     0
  0
VISUALSTYLE
  5
37
102
{ACAD_REACTORS
330
2A
102
}
330
2A
100
AcDbVisualStyle
  2
Thicken
 70
    13
 71
     2
 72
     2
 73
     0
 90
        0
 40
-0.6
 41
-30.0
 62
     5
 63
     7
421
 16777215
 74
     1
 91
        4
 64
     7
 65
   257
 75
     1
175
     1
 42
1.0
 92
       12
 66
     7
 43
1.0
 76
     1
 77
     6
 78
     2
 67
     7
 79
     5
170
     0
171
     0
290
     0
174
     0
 93
        1
 44
0.0
173
     0
291
     1
 45
0.0
1001
ACAD
1000
AcDbSavedByObjectVersion
1070
     0
  0
ENDSEC
  0
EOF
