  0
SECTION
  2
HEADER
  9
$ACADVER
  1
AC1018
  9
$ACADMAINTVER
 70
     0
  9
$DWGCODEPAGE
  3
ANSI_1252
  9
$INSBASE
 10
0.0
 20
0.0
 30
0.0
  9
$EXTMIN
 10
1.000000000000000E+20
 20
1.000000000000000E+20
 30
1.000000000000000E+20
  9
$EXTMAX
 10
-1.000000000000000E+20
 20
-1.000000000000000E+20
 30
-1.000000000000000E+20
  9
$LIMMIN
 10
0.0
 20
0.0
  9
$LIMMAX
 10
12.0
 20
9.0
  9
$ORTHOMODE
 70
     0
  9
$REGENMODE
 70
     1
  9
$FILLMODE
 70
     1
  9
$QTEXTMODE
 70
     0
  9
$MIRRTEXT
 70
     1
  9
$LTSCALE
 40
1.0
  9
$ATTMODE
 70
     1
  9
$TEXTSIZE
 40
0.2
  9
$TRACEWID
 40
0.05
  9
$TEXTSTYLE
  7
Standard
  9
$CLAYER
  8
0
  9
$CELTYPE
  6
ByLayer
  9
$CECOLOR
 62
   256
  9
$CELTSCALE
 40
1.0
  9
$DISPSILH
 70
     0
  9
$DIMSCALE
 40
1.0
  9
$DIMASZ
 40
0.18
  9
$DIMEXO
 40
0.0625
  9
$DIMDLI
 40
0.38
  9
$DIMRND
 40
0.0
  9
$DIMDLE
 40
0.0
  9
$DIMEXE
 40
0.18
  9
$DIMTP
 40
0.0
  9
$DIMTM
 40
0.0
  9
$DIMTXT
 40
0.18
  9
$DIMCEN
 40
0.09
  9
$DIMTSZ
 40
0.0
  9
$DIMTOL
 70
     0
  9
$DIMLIM
 70
     0
  9
$DIMTIH
 70
     1
  9
$DIMTOH
 70
     1
  9
$DIMSE1
 70
     0
  9
$DIMSE2
 70
     0
  9
$DIMTAD
 70
     0
  9
$DIMZIN
 70
     0
  9
$DIMBLK
  1

  9
$DIMASO
 70
     1
  9
$DIMSHO
 70
     1
  9
$DIMPOST
  1

  9
$DIMAPOST
  1

  9
$DIMALT
 70
     0
  9
$DIMALTD
 70
     2
  9
$DIMALTF
 40
25.4
  9
$DIMLFAC
 40
1.0
  9
$DIMTOFL
 70
     0
  9
$DIMTVP
 40
0.0
  9
$DIMTIX
 70
     0
  9
$DIMSOXD
 70
     0
  9
$DIMSAH
 70
     0
  9
$DIMBLK1
  1

  9
$DIMBLK2
  1

  9
$DIMSTYLE
  2
Standard
  9
$DIMCLRD
 70
     0
  9
$DIMCLRE
 70
     0
  9
$DIMCLRT
 70
     0
  9
$DIMTFAC
 40
1.0
  9
$DIMGAP
 40
0.09
  9
$DIMJUST
 70
     0
  9
$DIMSD1
 70
     0
  9
$DIMSD2
 70
     0
  9
$DIMTOLJ
 70
     1
  9
$DIMTZIN
 70
     0
  9
$DIMALTZ
 70
     0
  9
$DIMALTTZ
 70
     0
  9
$DIMUPT
 70
     0
  9
$DIMDEC
 70
     4
  9
$DIMTDEC
 70
     4
  9
$DIMALTU
 70
     2
  9
$DIMALTTD
 70
     2
  9
$DIMTXSTY
  7
Standard
  9
$DIMAUNIT
 70
     0
  9
$DIMADEC
 70
     0
  9
$DIMALTRND
 40
0.0
  9
$DIMAZIN
 70
     0
  9
$DIMDSEP
 70
    46
  9
$DIMATFIT
 70
     3
  9
$DIMFRAC
 70
     0
  9
$DIMLDRBLK
  1

  9
$DIMLUNIT
 70
     2
  9
$DIMLWD
 70
    -2
  9
$DIMLWE
 70
    -2
  9
$DIMTMOVE
 70
     0
  9
$LUNITS
 70
     2
  9
$LUPREC
 70
     4
  9
$SKETCHINC
 40
0.1
  9
$FILLETRAD
 40
0.5
  9
$AUNITS
 70
     0
  9
$AUPREC
 70
     0
  9
$MENU
  1
.
  9
$ELEVATION
 40
0.0
  9
$PELEVATION
 40
0.0
  9
$THICKNESS
 40
0.0
  9
$LIMCHECK
 70
     0
  9
$CHAMFERA
 40
0.5
  9
$CHAMFERB
 40
0.5
  9
$CHAMFERC
 40
1.0
  9
$CHAMFERD
 40
0.0
  9
$SKPOLY
 70
     0
  9
$TDCREATE
 40
2456954.469683206
  9
$TDUCREATE
 40
2456954.386349873
  9
$TDUPDATE
 40
2456954.469683218
  9
$TDUUPDATE
 40
2456954.386349884
  9
$TDINDWG
 40
0.0000000116
  9
$TDUSRTIMER
 40
0.0000000116
  9
$USRTIMER
 70
     1
  9
$ANGBASE
 50
0.0
  9
$ANGDIR
 70
     0
  9
$PDMODE
 70
     0
  9
$PDSIZE
 40
0.0
  9
$PLINEWID
 40
0.0
  9
$SPLFRAME
 70
     0
  9
$SPLINETYPE
 70
     6
  9
$SPLINESEGS
 70
     8
  9
$HANDSEED
  5
9F
  9
$SURFTAB1
 70
     6
  9
$SURFTAB2
 70
     6
  9
$SURFTYPE
 70
     6
  9
$SURFU
 70
     6
  9
$SURFV
 70
     6
  9
$UCSBASE
  2

  9
$UCSNAME
  2

  9
$UCSORG
 10
0.0
 20
0.0
 30
0.0
  9
$UCSXDIR
 10
1.0
 20
0.0
 30
0.0
  9
$UCSYDIR
 10
0.0
 20
1.0
 30
0.0
  9
$UCSORTHOREF
  2

  9
$UCSORTHOVIEW
 70
     0
  9
$UCSORGTOP
 10
0.0
 20
0.0
 30
0.0
  9
$UCSORGBOTTOM
 10
0.0
 20
0.0
 30
0.0
  9
$UCSORGLEFT
 10
0.0
 20
0.0
 30
0.0
  9
$UCSORGRIGHT
 10
0.0
 20
0.0
 30
0.0
  9
$UCSORGFRONT
 10
0.0
 20
0.0
 30
0.0
  9
$UCSORGBACK
 10
0.0
 20
0.0
 30
0.0
  9
$PUCSBASE
  2

  9
$PUCSNAME
  2

  9
$PUCSORG
 10
0.0
 20
0.0
 30
0.0
  9
$PUCSXDIR
 10
1.0
 20
0.0
 30
0.0
  9
$PUCSYDIR
 10
0.0
 20
1.0
 30
0.0
  9
$PUCSORTHOREF
  2

  9
$PUCSORTHOVIEW
 70
     0
  9
$PUCSORGTOP
 10
0.0
 20
0.0
 30
0.0
  9
$PUCSORGBOTTOM
 10
0.0
 20
0.0
 30
0.0
  9
$PUCSORGLEFT
 10
0.0
 20
0.0
 30
0.0
  9
$PUCSORGRIGHT
 10
0.0
 20
0.0
 30
0.0
  9
$PUCSORGFRONT
 10
0.0
 20
0.0
 30
0.0
  9
$PUCSORGBACK
 10
0.0
 20
0.0
 30
0.0
  9
$USERI1
 70
     0
  9
$USERI2
 70
     0
  9
$USERI3
 70
     0
  9
$USERI4
 70
     0
  9
$USERI5
 70
     0
  9
$USERR1
 40
0.0
  9
$USERR2
 40
0.0
  9
$USERR3
 40
0.0
  9
$USERR4
 40
0.0
  9
$USERR5
 40
0.0
  9
$WORLDVIEW
 70
     1
  9
$SHADEDGE
 70
     3
  9
$SHADEDIF
 70
    70
  9
$TILEMODE
 70
     1
  9
$MAXACTVP
 70
    64
  9
$PINSBASE
 10
0.0
 20
0.0
 30
0.0
  9
$PLIMCHECK
 70
     0
  9
$PEXTMIN
 10
1.000000000000000E+20
 20
1.000000000000000E+20
 30
1.000000000000000E+20
  9
$PEXTMAX
 10
-1.000000000000000E+20
 20
-1.000000000000000E+20
 30
-1.000000000000000E+20
  9
$PLIMMIN
 10
0.0
 20
0.0
  9
$PLIMMAX
 10
12.0
 20
9.0
  9
$UNITMODE
 70
     0
  9
$VISRETAIN
 70
     1
  9
$PLINEGEN
 70
     0
  9
$PSLTSCALE
 70
     1
  9
$TREEDEPTH
 70
  3020
  9
$CMLSTYLE
  2
Standard
  9
$CMLJUST
 70
     0
  9
$CMLSCALE
 40
1.0
  9
$PROXYGRAPHICS
 70
     1
  9
$MEASUREMENT
 70
     0
  9
$CELWEIGHT
370
    -1
  9
$ENDCAPS
280
     0
  9
$JOINSTYLE
280
     0
  9
$LWDISPLAY
290
     0
  9
$INSUNITS
 70
    13
  9
$HYPERLINKBASE
  1

  9
$STYLESHEET
  1

  9
$XEDIT
290
     1
  9
$CEPSNTYPE
380
     0
  9
$PSTYLEMODE
290
     1
  9
$FINGERPRINTGUID
  2
{F3F23B22-C16E-4805-A9F8-987259F68A93}
  9
$VERSIONGUID
  2
{FAEB1C32-E019-11D5-929B-00C0DF256EC4}
  9
$EXTNAMES
290
     1
  9
$PSVPSCALE
 40
0.0
  9
$OLESTARTUP
290
     0
  9
$SORTENTS
280
   127
  9
$INDEXCTL
280
     0
  9
$HIDETEXT
280
     1
  9
$XCLIPFRAME
290
     0
  9
$HALOGAP
280
     0
  9
$OBSCOLOR
 70
   257
  9
$OBSLTYPE
280
     0
  9
$INTERSECTIONDISPLAY
280
     0
  9
$INTERSECTIONCOLOR
 70
   257
  9
$DIMASSOC
280
     2
  9
$PROJECTNAME
  1

  0
ENDSEC
  0
SECTION
  2
CLASSES
  0
CLASS
  1
ACDBDICTIONARYWDFLT
  2
AcDbDictionaryWithDefault
  3
ObjectDBX Classes
 90
        0
 91
       15
280
     0
281
     0
  0
CLASS
  1
VISUALSTYLE
  2
AcDbVisualStyle
  3
ObjectDBX Classes
 90
     4095
 91
       15
280
     0
281
     0
  0
CLASS
  1
SCALE
  2
AcDbScale
  3
ObjectDBX Classes
 90
     1153
 91
       15
280
     0
281
     0
  0
ENDSEC
  0
SECTION
  2
TABLES
  0
TABLE
  2
VPORT
  5
8
330
0
100
AcDbSymbolTable
 70
     1
  0
VPORT
  5
29
330
8
100
AcDbSymbolTableRecord
100
AcDbViewportTableRecord
  2
*Active
 70
     0
 10
0.0
 20
0.0
 11
1.0
 21
1.0
 12
10.42990654205607
 22
4.5
 13
0.0
 23
0.0
 14
0.5
 24
0.5
 15
0.5
 25
0.5
 16
0.0
 26
0.0
 36
1.0
 17
0.0
 27
0.0
 37
0.0
 40
9.0
 41
1.972972972850329
 42
50.0
 43
0.0
 44
0.0
 50
0.0
 51
0.0
 71
     0
 72
   100
 73
     1
 74
     3
 75
     0
 76
     0
 77
     0
 78
     0
281
     0
 65
     1
110
0.0
120
0.0
130
0.0
111
1.0
121
0.0
131
0.0
112
0.0
122
1.0
132
0.0
 79
     0
146
0.0
  0
ENDTAB
  0
TABLE
  2
LTYPE
  5
5
330
0
100
AcDbSymbolTable
 70
     1
  0
LTYPE
  5
14
330
5
100
AcDbSymbolTableRecord
100
AcDbLinetypeTableRecord
  2
ByBlock
 70
     0
  3

 72
    65
 73
     0
 40
0.0
  0
LTYPE
  5
15
330
5
100
AcDbSymbolTableRecord
100
AcDbLinetypeTableRecord
  2
ByLayer
 70
     0
  3

 72
    65
 73
     0
 40
0.0
  0
LTYPE
  5
16
330
5
100
AcDbSymbolTableRecord
100
AcDbLinetypeTableRecord
  2
Continuous
 70
     0
  3
Solid line
 72
    65
 73
     0
 40
0.0
  0
ENDTAB
  0
TABLE
  2
LAYER
  5
2
330
0
100
AcDbSymbolTable
 70
     2
  0
LAYER
  5
10
330
2
100
AcDbSymbolTableRecord
100
AcDbLayerTableRecord
  2
0
 70
     0
 62
     7
  6
Continuous
370
    -3
390
F
  0
LAYER
  5
5E
330
2
100
AcDbSymbolTableRecord
100
AcDbLayerTableRecord
  2
text2
 70
     0
 62
    16
420
  8388608
  6
Continuous
370
    -3
390
F
  0
ENDTAB
  0
TABLE
  2
STYLE
  5
3
330
0
100
AcDbSymbolTable
 70
     1
  0
STYLE
  5
11
330
3
100
AcDbSymbolTableRecord
100
AcDbTextStyleTableRecord
  2
Standard
 70
     0
 40
0.0
 41
1.0
 50
0.0
 71
     0
 42
0.2
  3
txt
  4

  0
ENDTAB
  0
TABLE
  2
VIEW
  5
6
330
0
100
AcDbSymbolTable
 70
     0
  0
ENDTAB
  0
TABLE
  2
UCS
  5
7
330
0
100
AcDbSymbolTable
 70
     0
  0
ENDTAB
  0
TABLE
  2
APPID
  5
9
330
0
100
AcDbSymbolTable
 70
     1
  0
APPID
  5
12
330
9
100
AcDbSymbolTableRecord
100
AcDbRegAppTableRecord
  2
ACAD
 70
     0
  0
ENDTAB
  0
TABLE
  2
DIMSTYLE
  5
A
330
0
100
AcDbSymbolTable
 70
     1
100
AcDbDimStyleTable
  0
DIMSTYLE
105
27
330
A
100
AcDbSymbolTableRecord
100
AcDbDimStyleTableRecord
  2
Standard
 70
     0
340
11
  0
ENDTAB
  0
TABLE
  2
BLOCK_RECORD
  5
1
330
0
100
AcDbSymbolTable
 70
     1
  0
BLOCK_RECORD
  5
1F
330
1
100
AcDbSymbolTableRecord
100
AcDbBlockTableRecord
  2
*Model_Space
340
22
  0
BLOCK_RECORD
  5
1B
330
1
100
AcDbSymbolTableRecord
100
AcDbBlockTableRecord
  2
*Paper_Space
340
1E
  0
BLOCK_RECORD
  5
23
330
1
100
AcDbSymbolTableRecord
100
AcDbBlockTableRecord
  2
*Paper_Space0
340
26
  0
ENDTAB
  0
ENDSEC
  0
SECTION
  2
BLOCKS
  0
BLOCK
  5
20
330
1F
100
AcDbEntity
  8
0
100
AcDbBlockBegin
  2
*Model_Space
 70
     0
 10
0.0
 20
0.0
 30
0.0
  3
*Model_Space
  1

  0
ENDBLK
  5
21
330
1F
100
AcDbEntity
  8
0
100
AcDbBlockEnd
  0
BLOCK
  5
1C
330
1B
100
AcDbEntity
 67
     1
  8
0
100
AcDbBlockBegin
  2
*Paper_Space
 70
     0
 10
0.0
 20
0.0
 30
0.0
  3
*Paper_Space
  1

  0
ENDBLK
  5
1D
330
1B
100
AcDbEntity
 67
     1
  8
0
100
AcDbBlockEnd
  0
BLOCK
  5
24
330
23
100
AcDbEntity
  8
0
100
AcDbBlockBegin
  2
*Paper_Space0
 70
     0
 10
0.0
 20
0.0
 30
0.0
  3
*Paper_Space0
  1

  0
ENDBLK
  5
25
330
23
100
AcDbEntity
  8
0
100
AcDbBlockEnd
  0
ENDSEC
  0
SECTION
  2
ENTITIES
  0
LWPOLYLINE
  5
5D
330
1F
100
AcDbEntity
  8
text2
100
AcDbPolyline
 90
        4
 70
     1
 43
0.0
 10
63.5
 20
376.6
 10
63.5
 20
439.6
 10
135.7
 20
439.6
 10
135.7
 20
376.6
  0
LWPOLYLINE
  5
5F
330
1F
100
AcDbEntity
  8
text2
100
AcDbPolyline
 90
       28
 70
     1
 43
0.0
 10
148.3
 20
327.5
 10
149.2
 20
321.6
 10
148.3
 20
315.7
 10
145.6
 20
310.3
 10
141.3
 20
306.1
 10
136.0
 20
303.4
 10
131.0
 20
302.6
 10
123.5
 20
302.6
 10
101.5
 20
267.4
 10
101.5
 20
260.5
 10
100.7
 20
255.5
 10
98.0
 20
250.2
 10
93.8
 20
245.9
 10
88.4
 20
243.2
 10
82.511
 20
242.3
 10
76.60000000000001
 20
243.2
 10
71.2
 20
245.9
 10
67.0
 20
250.2
 10
64.3
 20
255.5
 10
63.5
 20
260.5
 10
63.5
 20
340.7
 10
122.5
 20
340.7
 10
122.5
 20
340.6
 10
131.0
 20
340.6
 10
136.0
 20
339.8
 10
141.3
 20
337.1
 10
145.6
 20
332.9
 10
148.3
 20
327.5
  0
LWPOLYLINE
  5
60
330
1F
100
AcDbEntity
  8
text2
100
AcDbPolyline
 90
       28
 70
     1
 43
0.0
 10
148.3
 20
500.5
 10
149.2
 20
494.6
 10
148.3
 20
488.7
 10
145.6
 20
483.3
 10
141.3
 20
479.1
 10
136.0
 20
476.4
 10
131.0
 20
475.6
 10
124.0
 20
475.6
 10
124.0
 20
475.5
 10
63.5
 20
475.5
 10
63.5
 20
555.7
 10
64.3
 20
560.7
 10
67.0
 20
566.0
 10
71.2
 20
570.3000000000001
 10
76.60000000000001
 20
573.0
 10
82.5
 20
573.9
 10
88.4
 20
573.0
 10
93.8
 20
570.3000000000001
 10
98.0
 20
566.0
 10
100.7
 20
560.7
 10
101.5
 20
555.7
 10
101.5
 20
548.8000000000001
 10
124.0
 20
513.6
 10
131.0
 20
513.6
 10
136.0
 20
512.8
 10
141.3
 20
510.1
 10
145.6
 20
505.9
 10
148.3
 20
500.5
  0
LWPOLYLINE
  5
61
330
1F
100
AcDbEntity
  8
text2
100
AcDbPolyline
 90
        4
 70
     1
 43
0.0
 10
476.4
 20
839.1
 10
476.4
 20
939.1
 10
576.4
 20
939.1
 10
576.4
 20
839.1
  0
LWPOLYLINE
  5
62
330
1F
100
AcDbEntity
  8
text2
100
AcDbPolyline
 90
        9
 70
     1
 43
0.0
 10
688.4
 20
793.1
 10
688.4
 20
839.1
 10
664.4
 20
839.1
 10
664.4
 20
793.1
 10
626.4
 20
793.1
 10
626.4
 20
939.1
 10
726.4
 20
939.1
 10
726.4
 20
793.1
 10
688.4
 20
793.1
  0
LWPOLYLINE
  5
63
330
1F
100
AcDbEntity
  8
text2
100
AcDbPolyline
 90
        4
 70
     1
 43
0.0
 10
926.4
 20
839.1
 10
926.4
 20
939.1
 10
1026.4
 20
939.1
 10
1026.4
 20
839.1
  0
LWPOLYLINE
  5
64
330
1F
100
AcDbEntity
  8
text2
100
AcDbPolyline
 90
        4
 70
     1
 43
0.0
 10
1464.3
 20
377.1
 10
1464.3
 20
440.1
 10
1536.5
 20
440.1
 10
1536.5
 20
377.1
  0
LWPOLYLINE
  5
65
330
1F
100
AcDbEntity
  8
text2
100
AcDbPolyline
 90
        4
 70
     1
 43
0.0
 10
776.4
 20
839.1
 10
776.4
 20
939.1
 10
876.4
 20
939.1
 10
876.4
 20
839.1
  0
LWPOLYLINE
  5
66
330
1F
100
AcDbEntity
  8
text2
100
AcDbPolyline
 90
       28
 70
     1
 43
0.0
 10
1477.5
 20
476.0
 10
1477.5
 20
476.1
 10
1469.0
 20
476.1
 10
1464.0
 20
476.9
 10
1458.7
 20
479.6
 10
1454.4
 20
483.8
 10
1451.7
 20
489.2
 10
1450.8
 20
495.1
 10
1451.7
 20
501.0
 10
1454.4
 20
506.4
 10
1458.7
 20
510.6
 10
1464.0
 20
513.3
 10
1469.0
 20
514.1
 10
1476.5
 20
514.1
 10
1498.5
 20
549.3000000000001
 10
1498.5
 20
556.2
 10
1499.3
 20
561.2
 10
1502.0
 20
566.5
 10
1506.2
 20
570.8000000000001
 10
1511.6
 20
573.5
 10
1517.5
 20
574.4
 10
1523.4
 20
573.5
 10
1528.8
 20
570.8000000000001
 10
1533.0
 20
566.5
 10
1535.7
 20
561.2
 10
1536.5
 20
556.2
 10
1536.5
 20
476.0
 10
1477.5
 20
476.0
  0
LWPOLYLINE
  5
67
330
1F
100
AcDbEntity
  8
text2
100
AcDbPolyline
 90
       28
 70
     1
 43
0.0
 10
1498.5
 20
261.0
 10
1498.5
 20
267.9
 10
1476.0
 20
303.1
 10
1469.0
 20
303.1
 10
1464.0
 20
303.9
 10
1458.7
 20
306.6
 10
1454.4
 20
310.8
 10
1451.7
 20
316.2
 10
1450.8
 20
322.1
 10
1451.7
 20
328.0
 10
1454.4
 20
333.4
 10
1458.7
 20
337.6
 10
1464.0
 20
340.3
 10
1469.0
 20
341.1
 10
1476.0
 20
341.1
 10
1476.0
 20
341.2
 10
1536.5
 20
341.2
 10
1536.5
 20
261.0
 10
1535.7
 20
256.0
 10
1533.0
 20
250.7
 10
1528.8
 20
246.4
 10
1523.4
 20
243.7
 10
1517.5
 20
242.8
 10
1511.6
 20
243.7
 10
1506.2
 20
246.4
 10
1502.0
 20
250.7
 10
1499.3
 20
256.0
 10
1498.5
 20
261.0
  0
LWPOLYLINE
  5
68
330
1F
100
AcDbEntity
  8
text2
100
AcDbPolyline
 90
        4
 70
     1
 43
0.0
 10
326.4
 20
839.1
 10
326.4
 20
939.1
 10
426.4
 20
939.1
 10
426.4
 20
839.1
  0
LWPOLYLINE
  5
69
330
1F
100
AcDbEntity
  8
text2
100
AcDbPolyline
 90
        8
 70
     1
 43
0.0
 10
118.051
 20
836.25
 10
123.551
 20
836.25
 10
128.551
 20
817.5
 10
133.551
 20
836.25
 10
138.801
 20
836.25
 10
131.051
 20
811.25
 10
126.051
 20
811.25
 10
118.051
 20
836.25
  0
LWPOLYLINE
  5
6A
330
1F
100
AcDbEntity
  8
text2
100
AcDbPolyline
 90
       67
 70
     1
 43
0.0
 10
163.301
 20
830.0
 10
163.801
 20
828.25
 10
158.801
 20
828.25
 10
158.301
 20
829.5
 10
157.551
 20
830.75
 10
156.551
 20
831.5
 10
155.301
 20
832.25
 10
153.801
 20
832.5
 10
152.551
 20
832.25
 10
151.301
 20
831.75
 10
150.301
 20
831.0
 10
149.301
 20
829.75
 10
148.801
 20
828.5
 10
148.301
 20
827.0
 10
148.051
 20
825.5
 10
148.051
 20
822.0
 10
148.301
 20
820.5
 10
148.801
 20
819.0
 10
149.301
 20
817.75
 10
150.301
 20
816.5
 10
151.301
 20
815.75
 10
152.551
 20
815.25
 10
153.801
 20
815.0
 10
155.301
 20
815.25
 10
156.301
 20
815.75
 10
157.301
 20
816.5
 10
158.051
 20
817.5
 10
158.551
 20
818.75
 10
158.801
 20
820.0
 10
154.301
 20
820.0
 10
154.301
 20
823.75
 10
163.801
 20
823.75
 10
163.801
 20
811.25
 10
161.051
 20
811.25
 10
160.051
 20
814.25
 10
159.301
 20
813.0
 10
158.051
 20
812.25
 10
156.801
 20
811.5
 10
155.301
 20
811.25
 10
153.801
 20
811.0
 10
151.801
 20
811.25
 10
150.051
 20
811.5
 10
148.301
 20
812.5
 10
147.051
 20
813.5
 10
145.801
 20
814.75
 10
144.801
 20
816.5
 10
144.051
 20
818.0
 10
143.551
 20
820.0
 10
143.301
 20
821.75
 10
143.051
 20
823.75
 10
143.301
 20
825.75
 10
143.551
 20
827.5
 10
144.051
 20
829.5
 10
144.801
 20
831.0
 10
145.801
 20
832.75
 10
147.051
 20
834.0
 10
148.301
 20
835.0
 10
150.051
 20
836.0
 10
151.801
 20
836.5
 10
153.801
 20
836.75
 10
155.801
 20
836.5
 10
157.301
 20
836.0
 10
159.051
 20
835.25
 10
160.301
 20
834.25
 10
161.551
 20
833.0
 10
162.551
 20
831.75
 10
163.301
 20
830.0
  0
LWPOLYLINE
  5
6B
330
1F
100
AcDbEntity
  8
text2
100
AcDbPolyline
 90
       18
 70
     1
 43
0.0
 10
183.051
 20
815.0
 10
188.551
 20
815.0
 10
188.551
 20
811.25
 10
172.551
 20
811.25
 10
172.551
 20
815.0
 10
178.051
 20
815.0
 10
178.051
 20
828.0
 10
171.301
 20
828.0
 10
171.301
 20
831.25
 10
172.551
 20
831.25
 10
174.051
 20
831.5
 10
175.551
 20
832.0
 10
176.801
 20
832.5
 10
177.801
 20
833.5
 10
178.551
 20
834.75
 10
178.801
 20
836.25
 10
183.051
 20
836.25
 10
183.051
 20
815.0
  0
LWPOLYLINE
  5
6C
330
1F
100
AcDbEntity
  8
text2
100
AcDbPolyline
 90
        8
 70
     1
 43
0.0
 10
218.051
 20
836.25
 10
223.551
 20
836.25
 10
228.551
 20
817.5
 10
233.551
 20
836.25
 10
238.801
 20
836.25
 10
231.051
 20
811.25
 10
226.051
 20
811.25
 10
218.051
 20
836.25
  0
LWPOLYLINE
  5
6D
330
1F
100
AcDbEntity
  8
text2
100
AcDbPolyline
 90
       23
 70
     1
 43
0.0
 10
243.051
 20
811.25
 10
243.051
 20
836.25
 10
253.551
 20
836.25
 10
255.551
 20
836.0
 10
257.301
 20
835.5
 10
258.801
 20
834.75
 10
260.051
 20
833.75
 10
261.301
 20
832.25
 10
262.051
 20
830.75
 10
262.801
 20
829.25
 10
263.301
 20
827.5
 10
263.801
 20
825.5
 10
263.801
 20
822.0
 10
263.301
 20
820.0
 10
262.801
 20
818.25
 10
262.051
 20
816.75
 10
261.301
 20
815.25
 10
260.051
 20
813.75
 10
258.801
 20
812.75
 10
257.301
 20
812.0
 10
255.551
 20
811.5
 10
253.551
 20
811.25
 10
243.051
 20
811.25
  0
LWPOLYLINE
  5
6E
330
1F
100
AcDbEntity
  8
text2
100
AcDbPolyline
 90
       18
 70
     1
 43
0.0
 10
283.051
 20
815.0
 10
288.551
 20
815.0
 10
288.551
 20
811.25
 10
272.551
 20
811.25
 10
272.551
 20
815.0
 10
278.051
 20
815.0
 10
278.051
 20
828.0
 10
271.301
 20
828.0
 10
271.301
 20
831.25
 10
272.551
 20
831.25
 10
274.051
 20
831.5
 10
275.551
 20
832.0
 10
276.801
 20
832.5
 10
277.801
 20
833.5
 10
278.551
 20
834.75
 10
278.801
 20
836.25
 10
283.051
 20
836.25
 10
283.051
 20
815.0
  0
LWPOLYLINE
  5
6F
330
1F
100
AcDbEntity
  8
text2
100
AcDbPolyline
 90
        8
 70
     1
 43
0.0
 10
1071.551
 20
916.85
 10
1077.051
 20
916.85
 10
1082.051
 20
898.1
 10
1087.051
 20
916.85
 10
1092.301
 20
916.85
 10
1084.551
 20
891.85
 10
1079.551
 20
891.85
 10
1071.551
 20
916.85
  0
LWPOLYLINE
  5
70
330
1F
100
AcDbEntity
  8
text2
100
AcDbPolyline
 90
       67
 70
     1
 43
0.0
 10
1116.801
 20
910.6
 10
1117.301
 20
908.85
 10
1112.301
 20
908.85
 10
1111.801
 20
910.1
 10
1111.051
 20
911.35
 10
1110.051
 20
912.1
 10
1108.801
 20
912.85
 10
1107.301
 20
913.1
 10
1106.051
 20
912.85
 10
1104.801
 20
912.35
 10
1103.801
 20
911.6
 10
1102.801
 20
910.35
 10
1102.301
 20
909.1
 10
1101.801
 20
907.6
 10
1101.551
 20
906.1
 10
1101.551
 20
902.6
 10
1101.801
 20
901.1
 10
1102.301
 20
899.6
 10
1102.801
 20
898.35
 10
1103.801
 20
897.1
 10
1104.801
 20
896.35
 10
1106.051
 20
895.85
 10
1107.301
 20
895.6
 10
1108.801
 20
895.85
 10
1109.801
 20
896.35
 10
1110.801
 20
897.1
 10
1111.551
 20
898.1
 10
1112.051
 20
899.35
 10
1112.301
 20
900.6
 10
1107.801
 20
900.6
 10
1107.801
 20
904.35
 10
1117.301
 20
904.35
 10
1117.301
 20
891.85
 10
1114.551
 20
891.85
 10
1113.551
 20
894.85
 10
1112.801
 20
893.6
 10
1111.551
 20
892.85
 10
1110.301
 20
892.1
 10
1108.801
 20
891.85
 10
1107.301
 20
891.6
 10
1105.301
 20
891.85
 10
1103.551
 20
892.1
 10
1101.801
 20
893.1
 10
1100.551
 20
894.1
 10
1099.301
 20
895.35
 10
1098.301
 20
897.1
 10
1097.551
 20
898.6
 10
1097.051
 20
900.6
 10
1096.801
 20
902.35
 10
1096.551
 20
904.35
 10
1096.801
 20
906.35
 10
1097.051
 20
908.1
 10
1097.551
 20
910.1
 10
1098.301
 20
911.6
 10
1099.301
 20
913.35
 10
1100.551
 20
914.6
 10
1101.801
 20
915.6
 10
1103.551
 20
916.6
 10
1105.301
 20
917.1
 10
1107.301
 20
917.35
 10
1109.301
 20
917.1
 10
1110.801
 20
916.6
 10
1112.551
 20
915.85
 10
1113.801
 20
914.85
 10
1115.051
 20
913.6
 10
1116.051
 20
912.35
 10
1116.801
 20
910.6
  0
LWPOLYLINE
  5
71
330
1F
100
AcDbEntity
  8
text2
100
AcDbPolyline
 90
       57
 70
     1
 43
0.0
 10
1121.551
 20
891.85
 10
1121.551
 20
893.85
 10
1121.801
 20
896.35
 10
1122.801
 20
898.6
 10
1124.051
 20
900.35
 10
1125.551
 20
901.85
 10
1127.301
 20
902.85
 10
1129.051
 20
903.85
 10
1130.801
 20
904.85
 10
1134.551
 20
906.35
 10
1135.551
 20
906.85
 10
1136.301
 20
907.6
 10
1137.051
 20
908.6
 10
1137.301
 20
909.85
 10
1137.051
 20
911.1
 10
1136.301
 20
911.85
 10
1135.301
 20
912.6
 10
1134.301
 20
912.85
 10
1133.051
 20
913.1
 10
1132.051
 20
913.1
 10
1130.551
 20
912.85
 10
1129.301
 20
912.6
 10
1128.051
 20
911.85
 10
1127.051
 20
911.1
 10
1126.551
 20
909.85
 10
1126.051
 20
908.6
 10
1121.551
 20
908.6
 10
1121.801
 20
910.35
 10
1122.551
 20
912.1
 10
1123.801
 20
913.6
 10
1125.051
 20
914.85
 10
1126.551
 20
915.85
 10
1128.301
 20
916.6
 10
1130.051
 20
917.1
 10
1132.051
 20
917.35
 10
1133.551
 20
917.1
 10
1135.551
 20
916.85
 10
1137.301
 20
916.35
 10
1138.801
 20
915.35
 10
1140.301
 20
914.35
 10
1141.301
 20
913.1
 10
1142.051
 20
911.35
 10
1142.301
 20
909.35
 10
1142.051
 20
907.6
 10
1141.301
 20
906.35
 10
1140.301
 20
905.1
 10
1139.051
 20
904.1
 10
1137.801
 20
903.6
 10
1132.301
 20
901.1
 10
1131.301
 20
900.6
 10
1130.051
 20
899.85
 10
1128.801
 20
898.85
 10
1127.801
 20
897.6
 10
1127.051
 20
896.1
 10
1142.301
 20
896.1
 10
1142.301
 20
891.85
 10
1121.551
 20
891.85
  0
LWPOLYLINE
  5
72
330
1F
100
AcDbEntity
  8
text2
100
AcDbPolyline
 90
        8
 70
     1
 43
0.0
 10
1171.551
 20
916.85
 10
1177.051
 20
916.85
 10
1182.051
 20
898.1
 10
1187.051
 20
916.85
 10
1192.301
 20
916.85
 10
1184.551
 20
891.85
 10
1179.551
 20
891.85
 10
1171.551
 20
916.85
  0
LWPOLYLINE
  5
73
330
1F
100
AcDbEntity
  8
text2
100
AcDbPolyline
 90
       23
 70
     1
 43
0.0
 10
1196.551
 20
891.85
 10
1196.551
 20
916.85
 10
1207.051
 20
916.85
 10
1209.051
 20
916.6
 10
1210.801
 20
916.1
 10
1212.301
 20
915.35
 10
1213.551
 20
914.35
 10
1214.801
 20
912.85
 10
1215.551
 20
911.35
 10
1216.301
 20
909.85
 10
1216.801
 20
908.1
 10
1217.301
 20
906.1
 10
1217.301
 20
902.6
 10
1216.801
 20
900.6
 10
1216.301
 20
898.85
 10
1215.551
 20
897.35
 10
1214.801
 20
895.85
 10
1213.551
 20
894.35
 10
1212.301
 20
893.35
 10
1210.801
 20
892.6
 10
1209.051
 20
892.1
 10
1207.051
 20
891.85
 10
1196.551
 20
891.85
  0
LWPOLYLINE
  5
74
330
1F
100
AcDbEntity
  8
text2
100
AcDbPolyline
 90
       57
 70
     1
 43
0.0
 10
1221.551
 20
891.85
 10
1221.551
 20
893.85
 10
1221.801
 20
896.35
 10
1222.801
 20
898.6
 10
1224.051
 20
900.35
 10
1225.551
 20
901.85
 10
1227.301
 20
902.85
 10
1229.051
 20
903.85
 10
1230.801
 20
904.85
 10
1234.551
 20
906.35
 10
1235.551
 20
906.85
 10
1236.301
 20
907.6
 10
1237.051
 20
908.6
 10
1237.301
 20
909.85
 10
1237.051
 20
911.1
 10
1236.301
 20
911.85
 10
1235.301
 20
912.6
 10
1234.301
 20
912.85
 10
1233.051
 20
913.1
 10
1232.051
 20
913.1
 10
1230.551
 20
912.85
 10
1229.301
 20
912.6
 10
1228.051
 20
911.85
 10
1227.051
 20
911.1
 10
1226.551
 20
909.85
 10
1226.051
 20
908.6
 10
1221.551
 20
908.6
 10
1221.801
 20
910.35
 10
1222.551
 20
912.1
 10
1223.801
 20
913.6
 10
1225.051
 20
914.85
 10
1226.551
 20
915.85
 10
1228.301
 20
916.6
 10
1230.051
 20
917.1
 10
1232.051
 20
917.35
 10
1233.551
 20
917.1
 10
1235.551
 20
916.85
 10
1237.301
 20
916.35
 10
1238.801
 20
915.35
 10
1240.301
 20
914.35
 10
1241.301
 20
913.1
 10
1242.051
 20
911.35
 10
1242.301
 20
909.35
 10
1242.051
 20
907.6
 10
1241.301
 20
906.35
 10
1240.301
 20
905.1
 10
1239.051
 20
904.1
 10
1237.801
 20
903.6
 10
1232.301
 20
901.1
 10
1231.301
 20
900.6
 10
1230.051
 20
899.85
 10
1228.801
 20
898.85
 10
1227.801
 20
897.6
 10
1227.051
 20
896.1
 10
1242.301
 20
896.1
 10
1242.301
 20
891.85
 10
1221.551
 20
891.85
  0
LWPOLYLINE
  5
75
330
1F
100
AcDbEntity
  8
text2
100
AcDbPolyline
 90
        4
 70
     1
 43
0.0
 10
0.0
 20
0.0
 10
0.0
 20
1000.0
 10
1600.0
 20
1000.0
 10
1600.0
 20
0.0
  0
LWPOLYLINE
  5
76
330
1F
100
AcDbEntity
  8
text2
100
AcDbPolyline
 90
       51
 70
     1
 43
0.0
 10
154.5
 20
109.4
 10
152.7
 20
109.6
 10
149.5
 20
110.0
 10
143.1
 20
111.2
 10
135.9
 20
112.8
 10
129.1
 20
115.2
 10
122.7
 20
118.0
 10
117.1
 20
121.2
 10
111.9
 20
124.8
 10
107.1
 20
128.4
 10
103.5
 20
132.4
 10
100.3
 20
136.8
 10
97.9
 20
140.8
 10
96.7
 20
145.6
 10
96.3
 20
150.0
 10
96.7
 20
153.6
 10
97.5
 20
157.6
 10
98.3
 20
159.6
 10
99.10000000000001
 20
161.2
 10
102.7
 20
166.0
 10
104.3
 20
167.2
 10
106.3
 20
168.4
 10
107.9
 20
169.6
 10
112.7
 20
172.0
 10
109.5
 20
170.8
 10
103.9
 20
168.4
 10
101.1
 20
166.8
 10
98.7
 20
164.8
 10
96.3
 20
163.2
 10
92.3
 20
159.2
 10
90.7
 20
157.2
 10
89.5
 20
154.8
 10
88.7
 20
152.8
 10
87.9
 20
150.4
 10
87.5
 20
146.4
 10
87.9
 20
142.0
 10
89.5
 20
137.6
 10
91.5
 20
133.2
 10
94.7
 20
128.8
 10
98.3
 20
124.8
 10
103.1
 20
121.2
 10
108.3
 20
117.6
 10
113.9
 20
114.4
 10
120.3
 20
112.0
 10
127.1
 20
109.6
 10
134.3
 20
107.6
 10
140.7
 20
106.4
 10
145.1
 20
106.0
 10
149.1
 20
105.6
 10
154.5
 20
105.6
 10
154.5
 20
109.4
  0
LWPOLYLINE
  5
77
330
1F
100
AcDbEntity
  8
text2
100
AcDbPolyline
 90
       95
 70
     1
 43
0.0
 10
154.5
 20
170.6
 10
152.3
 20
172.8
 10
151.1
 20
173.6
 10
149.5
 20
174.8
 10
147.5
 20
175.6
 10
145.9
 20
176.4
 10
144.3
 20
176.8
 10
140.3
 20
177.6
 10
132.3
 20
177.6
 10
128.3
 20
176.8
 10
125.9
 20
176.0
 10
126.3
 20
176.0
 10
127.9
 20
176.4
 10
129.9
 20
176.4
 10
131.5
 20
176.8
 10
133.1
 20
176.8
 10
134.7
 20
176.4
 10
136.3
 20
176.4
 10
137.9
 20
176.0
 10
139.1
 20
175.6
 10
140.7
 20
174.8
 10
141.9
 20
174.4
 10
143.5
 20
173.6
 10
145.9
 20
172.0
 10
149.5
 20
168.4
 10
151.1
 20
166.0
 10
151.9
 20
164.4
 10
152.7
 20
163.2
 10
153.5
 20
161.6
 10
153.5
 20
160.4
 10
146.3
 20
159.6
 10
143.1
 20
158.8
 10
139.5
 20
158.0
 10
136.3
 20
157.2
 10
133.1
 20
156.0
 10
129.9
 20
155.2
 10
127.1
 20
154.0
 10
124.3
 20
152.4
 10
121.5
 20
151.2
 10
119.1
 20
149.6
 10
121.1
 20
150.4
 10
123.5
 20
151.6
 10
125.9
 20
152.4
 10
127.9
 20
153.2
 10
130.3
 20
153.6
 10
133.1
 20
154.4
 10
135.5
 20
154.8
 10
141.1
 20
155.6
 10
143.9
 20
155.6
 10
146.7
 20
156.0
 10
152.3
 20
156.4
 10
154.3
 20
156.4
 10
153.9
 20
155.6
 10
152.7
 20
150.4
 10
152.3
 20
145.2
 10
152.3
 20
139.6
 10
152.7
 20
136.4
 10
150.3
 20
137.6
 10
148.3
 20
138.0
 10
146.7
 20
138.8
 10
144.7
 20
138.8
 10
143.1
 20
139.2
 10
141.1
 20
139.2
 10
139.1
 20
138.8
 10
137.5
 20
138.8
 10
135.5
 20
138.0
 10
133.9
 20
137.6
 10
131.9
 20
136.8
 10
130.3
 20
136.0
 10
128.3
 20
134.8
 10
126.7
 20
134.0
 10
124.7
 20
132.8
 10
121.9
 20
130.0
 10
123.1
 20
130.8
 10
124.7
 20
132.0
 10
126.3
 20
132.8
 10
127.5
 20
133.6
 10
130.7
 20
134.4
 10
131.9
 20
134.8
 10
133.5
 20
135.2
 10
135.1
 20
135.2
 10
136.7
 20
135.6
 10
138.3
 20
135.2
 10
139.5
 20
135.2
 10
141.1
 20
134.8
 10
142.7
 20
134.8
 10
144.3
 20
134.4
 10
145.5
 20
134.0
 10
147.9
 20
132.4
 10
149.1
 20
132.0
 10
150.3
 20
130.8
 10
152.7
 20
129.2
 10
153.5
 20
128.0
 10
154.5
 20
127.0
 10
154.5
 20
170.6
  0
LWPOLYLINE
  5
78
330
1F
100
AcDbEntity
  8
text2
100
AcDbPolyline
 90
      142
 70
     1
 43
0.0
 10
221.5
 20
165.6
 10
219.5
 20
166.0
 10
208.3
 20
166.0
 10
203.5
 20
165.2
 10
200.7
 20
164.4
 10
198.3
 20
164.0
 10
195.9
 20
163.2
 10
193.5
 20
162.0
 10
191.1
 20
161.2
 10
189.1
 20
160.0
 10
186.3
 20
158.4
 10
183.9
 20
156.8
 10
182.3
 20
157.2
 10
177.1
 20
158.8
 10
171.1
 20
160.0
 10
165.5
 20
160.4
 10
165.9
 20
162.4
 10
169.9
 20
171.2
 10
172.3
 20
174.4
 10
175.9
 20
178.0
 10
177.5
 20
179.2
 10
178.7
 20
180.0
 10
180.3
 20
181.2
 10
181.9
 20
182.0
 10
185.9
 20
183.6
 10
187.9
 20
184.0
 10
189.9
 20
184.8
 10
191.9
 20
184.8
 10
194.3
 20
185.2
 10
196.7
 20
185.2
 10
193.9
 20
185.6
 10
186.3
 20
185.6
 10
183.9
 20
185.2
 10
176.7
 20
182.8
 10
171.9
 20
180.4
 10
169.5
 20
178.8
 10
167.5
 20
177.2
 10
163.9
 20
174.0
 10
160.7
 20
169.6
 10
158.3
 20
166.0
 10
157.5
 20
166.8
 10
156.7
 20
168.4
 10
154.5
 20
170.6
 10
154.5
 20
127.0
 10
154.7
 20
126.8
 10
155.5
 20
125.6
 10
155.9
 20
125.2
 10
156.3
 20
124.0
 10
158.7
 20
119.2
 10
161.5
 20
115.6
 10
163.1
 20
113.2
 10
167.1
 20
109.2
 10
167.9
 20
108.8
 10
159.5
 20
108.8
 10
156.3
 20
109.2
 10
154.5
 20
109.4
 10
154.5
 20
105.6
 10
157.1
 20
105.6
 10
169.1
 20
106.8
 10
169.9
 20
107.2
 10
171.5
 20
106.0
 10
173.5
 20
104.4
 10
175.9
 20
103.6
 10
178.3
 20
102.4
 10
183.1
 20
100.8
 10
185.9
 20
100.4
 10
188.3
 20
100.4
 10
184.3
 20
101.2
 10
180.3
 20
102.8
 10
178.7
 20
103.6
 10
177.1
 20
104.8
 10
174.7
 20
107.2
 10
174.3
 20
108.0
 10
176.3
 20
108.4
 10
179.5
 20
109.6
 10
182.7
 20
110.4
 10
185.5
 20
111.6
 10
183.1
 20
110.8
 10
180.3
 20
110.0
 10
174.7
 20
109.2
 10
173.9
 20
109.2
 10
173.5
 20
109.6
 10
172.3
 20
112.8
 10
171.9
 20
116.0
 10
171.5
 20
119.6
 10
171.9
 20
123.6
 10
172.7
 20
127.6
 10
173.9
 20
131.6
 10
175.5
 20
135.6
 10
177.5
 20
139.6
 10
179.9
 20
143.6
 10
182.3
 20
147.2
 10
184.3
 20
149.6
 10
185.1
 20
148.8
 10
189.1
 20
146.4
 10
192.3
 20
143.6
 10
195.1
 20
140.4
 10
197.1
 20
137.2
 10
198.3
 20
133.6
 10
198.7
 20
130.8
 10
198.7
 20
129.2
 10
198.3
 20
127.2
 10
198.3
 20
125.6
 10
197.9
 20
124.4
 10
196.3
 20
121.2
 10
195.5
 20
120.0
 10
194.7
 20
118.4
 10
193.5
 20
117.2
 10
191.9
 20
116.0
 10
190.3
 20
114.4
 10
188.7
 20
113.2
 10
191.1
 20
114.8
 10
193.1
 20
116.0
 10
195.1
 20
118.0
 10
197.1
 20
119.6
 10
198.7
 20
121.2
 10
201.9
 20
125.2
 10
203.1
 20
126.8
 10
204.7
 20
130.8
 10
205.1
 20
132.8
 10
205.1
 20
134.8
 10
204.7
 20
138.0
 10
203.5
 20
141.6
 10
201.5
 20
144.8
 10
199.1
 20
148.0
 10
195.5
 20
150.8
 10
191.9
 20
153.2
 10
189.5
 20
154.4
 10
192.7
 20
156.8
 10
195.1
 20
158.4
 10
197.1
 20
159.6
 10
199.1
 20
160.4
 10
201.1
 20
161.6
 10
202.7
 20
162.4
 10
204.7
 20
162.8
 10
206.7
 20
163.6
 10
208.7
 20
164.0
 10
210.7
 20
164.8
 10
212.3
 20
165.2
 10
214.3
 20
165.2
 10
216.3
 20
165.6
 10
221.5
 20
165.6
  0
LWPOLYLINE
  5
79
330
1F
100
AcDbEntity
  8
text2
100
AcDbPolyline
 90
       74
 70
     1
 43
0.0
 10
255.9
 20
140.8
 10
256.3
 20
137.6
 10
256.3
 20
132.0
 10
254.3
 20
125.6
 10
251.1
 20
119.6
 10
246.7
 20
114.0
 10
241.1
 20
108.8
 10
234.3
 20
103.6
 10
226.3
 20
99.60000000000001
 10
217.5
 20
95.60000000000001
 10
207.9
 20
92.4
 10
197.5
 20
90.0
 10
186.7
 20
88.4
 10
175.1
 20
87.2
 10
165.1
 20
87.2
 10
158.7
 20
87.60000000000001
 10
152.3
 20
88.0
 10
145.9
 20
88.4
 10
139.9
 20
89.60000000000001
 10
133.9
 20
90.8
 10
127.9
 20
92.0
 10
122.3
 20
93.60000000000001
 10
117.1
 20
95.2
 10
111.9
 20
97.2
 10
107.1
 20
99.2
 10
102.3
 20
101.6
 10
98.3
 20
103.6
 10
102.3
 20
102.0
 10
105.9
 20
100.4
 10
109.9
 20
98.8
 10
114.3
 20
97.2
 10
118.3
 20
96.0
 10
122.7
 20
95.2
 10
127.5
 20
94.0
 10
131.9
 20
93.2
 10
136.7
 20
92.8
 10
141.9
 20
92.4
 10
147.1
 20
92.0
 10
162.3
 20
92.0
 10
173.9
 20
93.2
 10
184.7
 20
94.8
 10
195.1
 20
97.2
 10
204.7
 20
100.4
 10
213.5
 20
104.4
 10
221.5
 20
108.4
 10
228.3
 20
113.2
 10
233.9
 20
118.8
 10
238.3
 20
124.4
 10
241.5
 20
130.4
 10
243.5
 20
136.8
 10
243.9
 20
142.0
 10
243.5
 20
145.2
 10
243.1
 20
148.0
 10
242.7
 20
150.8
 10
241.9
 20
153.6
 10
240.7
 20
156.4
 10
239.1
 20
159.2
 10
237.5
 20
161.6
 10
235.5
 20
164.0
 10
233.5
 20
166.4
 10
230.7
 20
168.8
 10
227.9
 20
170.8
 10
224.7
 20
173.2
 10
228.7
 20
170.8
 10
233.1
 20
168.4
 10
236.7
 20
166.0
 10
240.3
 20
163.2
 10
243.9
 20
160.4
 10
246.7
 20
157.2
 10
249.5
 20
154.0
 10
251.9
 20
151.2
 10
253.5
 20
147.6
 10
255.1
 20
144.4
 10
255.9
 20
140.8
  0
LWPOLYLINE
  5
7A
330
1F
100
AcDbEntity
  8
text2
100
AcDbPolyline
 90
       18
 70
     1
 43
0.0
 10
304.29
 20
85.574
 10
304.29
 20
82.003
 10
300.715
 20
78.429
 10
282.86
 20
78.429
 10
282.86
 20
71.289
 10
304.29
 20
71.289
 10
311.43
 20
78.429
 10
311.43
 20
114.144
 10
304.29
 20
114.144
 10
304.29
 20
110.574
 10
300.715
 20
114.144
 10
290.0
 20
114.144
 10
282.86
 20
107.004
 10
282.86
 20
92.71900000000001
 10
290.0
 20
85.574
 10
300.715
 20
85.574
 10
304.29
 20
89.145
 10
304.29
 20
85.574
  0
LWPOLYLINE
  5
7B
330
1F
100
AcDbEntity
  8
text2
100
AcDbPolyline
 90
        9
 70
     1
 43
0.0
 10
300.715
 20
96.289
 10
300.715
 20
103.429
 10
297.145
 20
107.004
 10
293.575
 20
107.004
 10
290.0
 20
103.429
 10
290.0
 20
96.289
 10
293.575
 20
92.71900000000001
 10
297.145
 20
92.71900000000001
 10
300.715
 20
96.289
  0
LWPOLYLINE
  5
7C
330
1F
100
AcDbEntity
  8
text2
100
AcDbPolyline
 90
       11
 70
     1
 43
0.0
 10
329.29
 20
85.574
 10
329.29
 20
128.429
 10
336.43
 20
135.574
 10
357.86
 20
135.574
 10
365.0
 20
128.429
 10
365.0
 20
85.574
 10
357.86
 20
85.574
 10
357.86
 20
107.004
 10
336.43
 20
107.004
 10
336.43
 20
85.574
 10
329.29
 20
85.574
  0
LWPOLYLINE
  5
7D
330
1F
100
AcDbEntity
  8
text2
100
AcDbPolyline
 90
        7
 70
     1
 43
0.0
 10
336.43
 20
114.144
 10
357.86
 20
114.144
 10
357.86
 20
124.859
 10
354.29
 20
128.429
 10
340.0
 20
128.429
 10
336.43
 20
124.859
 10
336.43
 20
114.144
  0
LWPOLYLINE
  5
7E
330
1F
100
AcDbEntity
  8
text2
100
AcDbPolyline
 90
        9
 70
     1
 43
0.0
 10
379.29
 20
85.574
 10
379.29
 20
135.574
 10
407.86
 20
135.574
 10
415.0
 20
128.429
 10
415.0
 20
114.144
 10
407.86
 20
107.004
 10
386.43
 20
107.004
 10
386.43
 20
85.574
 10
379.29
 20
85.574
  0
LWPOLYLINE
  5
7F
330
1F
100
AcDbEntity
  8
text2
100
AcDbPolyline
 90
        7
 70
     1
 43
0.0
 10
386.43
 20
114.144
 10
404.29
 20
114.144
 10
407.86
 20
117.719
 10
407.86
 20
124.859
 10
404.29
 20
128.429
 10
386.43
 20
128.429
 10
386.43
 20
114.144
  0
LWPOLYLINE
  5
80
330
1F
100
AcDbEntity
  8
text2
100
AcDbPolyline
 90
       11
 70
     1
 43
0.0
 10
429.29
 20
85.574
 10
429.29
 20
96.289
 10
457.86
 20
128.429
 10
429.29
 20
128.429
 10
429.29
 20
135.574
 10
465.0
 20
135.574
 10
465.0
 20
124.859
 10
436.43
 20
92.71900000000001
 10
465.0
 20
92.71900000000001
 10
465.0
 20
85.574
 10
429.29
 20
85.574
  0
LWPOLYLINE
  5
81
330
1F
100
AcDbEntity
  8
text2
100
AcDbPolyline
 90
        9
 70
     1
 43
0.0
 10
482.86
 20
92.71900000000001
 10
482.86
 20
128.429
 10
490.0
 20
135.574
 10
504.29
 20
135.574
 10
511.43
 20
128.429
 10
511.43
 20
92.71900000000001
 10
504.29
 20
85.574
 10
490.0
 20
85.574
 10
482.86
 20
92.71900000000001
  0
LWPOLYLINE
  5
82
330
1F
100
AcDbEntity
  8
text2
100
AcDbPolyline
 90
        9
 70
     1
 43
0.0
 10
490.0
 20
96.289
 10
490.0
 20
124.859
 10
493.575
 20
128.429
 10
500.715
 20
128.429
 10
504.29
 20
124.859
 10
504.29
 20
96.289
 10
500.715
 20
92.71900000000001
 10
493.575
 20
92.71900000000001
 10
490.0
 20
96.289
  0
LWPOLYLINE
  5
83
330
1F
100
AcDbEntity
  8
text2
100
AcDbPolyline
 90
        9
 70
     1
 43
0.0
 10
532.86
 20
92.71900000000001
 10
532.86
 20
128.429
 10
540.0
 20
135.574
 10
554.29
 20
135.574
 10
561.4300000000001
 20
128.429
 10
561.4300000000001
 20
92.71900000000001
 10
554.29
 20
85.574
 10
540.0
 20
85.574
 10
532.86
 20
92.71900000000001
  0
LWPOLYLINE
  5
84
330
1F
100
AcDbEntity
  8
text2
100
AcDbPolyline
 90
        9
 70
     1
 43
0.0
 10
540.0
 20
96.289
 10
540.0
 20
124.859
 10
543.575
 20
128.429
 10
550.715
 20
128.429
 10
554.29
 20
124.859
 10
554.29
 20
96.289
 10
550.715
 20
92.71900000000001
 10
543.575
 20
92.71900000000001
 10
540.0
 20
96.289
  0
LWPOLYLINE
  5
85
330
1F
100
AcDbEntity
  8
text2
100
AcDbPolyline
 90
       11
 70
     1
 43
0.0
 10
586.4300000000001
 20
85.574
 10
586.4300000000001
 20
92.71900000000001
 10
593.575
 20
92.71900000000001
 10
593.575
 20
128.429
 10
586.4300000000001
 20
128.429
 10
593.575
 20
135.574
 10
600.715
 20
135.574
 10
600.715
 20
92.71900000000001
 10
607.86
 20
92.71900000000001
 10
607.86
 20
85.574
 10
586.4300000000001
 20
85.574
  0
LWPOLYLINE
  5
86
330
1F
100
AcDbEntity
  8
text2
100
AcDbPolyline
 90
       15
 70
     1
 43
0.0
 10
629.29
 20
92.71900000000001
 10
629.29
 20
103.429
 10
636.4300000000001
 20
110.574
 10
629.29
 20
117.719
 10
629.29
 20
128.429
 10
636.4300000000001
 20
135.574
 10
657.86
 20
135.574
 10
665.0
 20
128.429
 10
665.0
 20
117.719
 10
657.86
 20
110.574
 10
665.0
 20
103.429
 10
665.0
 20
92.71900000000001
 10
657.86
 20
85.574
 10
636.4300000000001
 20
85.574
 10
629.29
 20
92.71900000000001
  0
LWPOLYLINE
  5
87
330
1F
100
AcDbEntity
  8
text2
100
AcDbPolyline
 90
        9
 70
     1
 43
0.0
 10
640.0
 20
92.71900000000001
 10
654.29
 20
92.71900000000001
 10
657.86
 20
96.289
 10
657.86
 20
99.85900000000001
 10
650.715
 20
107.004
 10
643.575
 20
107.004
 10
636.4300000000001
 20
99.85900000000001
 10
636.4300000000001
 20
96.289
 10
640.0
 20
92.71900000000001
  0
LWPOLYLINE
  5
88
330
1F
100
AcDbEntity
  8
text2
100
AcDbPolyline
 90
        9
 70
     1
 43
0.0
 10
650.715
 20
114.144
 10
657.86
 20
121.289
 10
657.86
 20
124.859
 10
654.29
 20
128.429
 10
640.0
 20
128.429
 10
636.4300000000001
 20
124.859
 10
636.4300000000001
 20
121.289
 10
643.575
 20
114.144
 10
650.715
 20
114.144
  0
LWPOLYLINE
  5
89
330
1F
100
AcDbEntity
  8
text2
100
AcDbPolyline
 90
       11
 70
     1
 43
0.0
 10
206.75
 20
600.75
 10
206.75
 20
625.75
 10
211.75
 20
625.75
 10
223.0
 20
608.25
 10
223.0
 20
625.75
 10
227.5
 20
625.75
 10
227.5
 20
600.75
 10
223.0
 20
600.75
 10
211.25
 20
618.25
 10
211.25
 20
600.75
 10
206.75
 20
600.75
  0
LWPOLYLINE
  5
8A
330
1F
100
AcDbEntity
  8
text2
100
AcDbPolyline
 90
       13
 70
     1
 43
0.0
 10
185.5
 20
600.75
 10
185.5
 20
604.5
 10
189.75
 20
604.5
 10
189.75
 20
622.0
 10
185.5
 20
622.0
 10
185.5
 20
625.75
 10
198.75
 20
625.75
 10
198.75
 20
622.0
 10
194.75
 20
622.0
 10
194.75
 20
604.5
 10
198.75
 20
604.5
 10
198.75
 20
600.75
 10
185.5
 20
600.75
  0
LWPOLYLINE
  5
8B
330
1F
100
AcDbEntity
  8
text2
100
AcDbPolyline
 90
        4
 70
     1
 43
0.0
 10
0.0
 20
0.0
 10
0.0
 20
1000.0
 10
1600.0
 20
1000.0
 10
1600.0
 20
0.0
  0
LWPOLYLINE
  5
8C
330
1F
100
AcDbEntity
  8
text2
100
AcDbPolyline
 90
        9
 70
     1
 43
0.0
 10
71.715
 20
600.1800000000001
 10
71.715
 20
650.1800000000001
 10
100.285
 20
650.1800000000001
 10
107.425
 20
643.035
 10
107.425
 20
628.75
 10
100.285
 20
621.61
 10
78.855
 20
621.61
 10
78.855
 20
600.1800000000001
 10
71.715
 20
600.1800000000001
  0
LWPOLYLINE
  5
8D
330
1F
100
AcDbEntity
  8
text2
100
AcDbPolyline
 90
        7
 70
     1
 43
0.0
 10
78.855
 20
628.75
 10
96.715
 20
628.75
 10
100.285
 20
632.325
 10
100.285
 20
639.465
 10
96.715
 20
643.035
 10
78.855
 20
643.035
 10
78.855
 20
628.75
  0
LWPOLYLINE
  5
8E
330
1F
100
AcDbEntity
  8
text2
100
AcDbPolyline
 90
       11
 70
     1
 43
0.0
 10
128.855
 20
600.1800000000001
 10
128.855
 20
607.325
 10
136.0
 20
607.325
 10
136.0
 20
643.035
 10
128.855
 20
643.035
 10
136.0
 20
650.1800000000001
 10
143.14
 20
650.1800000000001
 10
143.14
 20
607.325
 10
150.285
 20
607.325
 10
150.285
 20
600.1800000000001
 10
128.855
 20
600.1800000000001
  0
LWPOLYLINE
  5
8F
330
1F
100
AcDbEntity
  8
text2
100
AcDbPolyline
 90
       11
 70
     1
 43
0.0
 10
142.57
 20
531.1800000000001
 10
142.57
 20
534.753
 10
146.142
 20
534.753
 10
146.142
 20
552.6080000000001
 10
142.57
 20
552.6080000000001
 10
146.142
 20
556.1800000000001
 10
149.712
 20
556.1800000000001
 10
149.712
 20
534.753
 10
153.284
 20
534.753
 10
153.284
 20
531.1800000000001
 10
142.57
 20
531.1800000000001
  0
LWPOLYLINE
  5
90
330
1F
100
AcDbEntity
  8
text2
100
AcDbPolyline
 90
       11
 70
     1
 43
0.0
 10
1450.428
 20
247.499
 10
1450.428
 20
251.072
 10
1454.0
 20
251.072
 10
1454.0
 20
268.927
 10
1450.428
 20
268.927
 10
1454.0
 20
272.499
 10
1457.57
 20
272.499
 10
1457.57
 20
251.072
 10
1461.142
 20
251.072
 10
1461.142
 20
247.499
 10
1450.428
 20
247.499
  0
LWPOLYLINE
  5
91
330
1F
100
AcDbEntity
  8
text2
100
AcDbPolyline
 90
        9
 70
     1
 43
0.0
 10
1444.715
 20
595.072
 10
1444.715
 20
645.072
 10
1473.285
 20
645.072
 10
1480.425
 20
637.927
 10
1480.425
 20
623.642
 10
1473.285
 20
616.5020000000001
 10
1451.855
 20
616.5020000000001
 10
1451.855
 20
595.072
 10
1444.715
 20
595.072
  0
LWPOLYLINE
  5
92
330
1F
100
AcDbEntity
  8
text2
100
AcDbPolyline
 90
       26
 70
     1
 43
0.0
 10
1494.715
 20
602.217
 10
1501.855
 20
605.787
 10
1505.425
 20
602.217
 10
1519.715
 20
602.217
 10
1523.285
 20
605.787
 10
1523.285
 20
609.357
 10
1516.14
 20
616.5020000000001
 10
1509.0
 20
616.5020000000001
 10
1509.0
 20
623.642
 10
1516.14
 20
623.642
 10
1523.285
 20
630.787
 10
1523.285
 20
634.357
 10
1519.715
 20
637.927
 10
1505.425
 20
637.927
 10
1501.855
 20
634.357
 10
1494.715
 20
637.927
 10
1501.855
 20
645.072
 10
1523.285
 20
645.072
 10
1530.425
 20
637.927
 10
1530.425
 20
627.217
 10
1523.285
 20
620.072
 10
1530.425
 20
612.927
 10
1530.425
 20
602.217
 10
1523.285
 20
595.072
 10
1501.855
 20
595.072
 10
1494.715
 20
602.217
  0
LWPOLYLINE
  5
93
330
1F
100
AcDbEntity
  8
text2
100
AcDbPolyline
 90
        9
 70
     1
 43
0.0
 10
1412.625
 20
593.625
 10
1412.625
 20
614.375
 10
1404.625
 20
614.375
 10
1404.625
 20
618.625
 10
1425.375
 20
618.625
 10
1425.375
 20
614.375
 10
1417.625
 20
614.375
 10
1417.625
 20
593.625
 10
1412.625
 20
593.625
  0
LWPOLYLINE
  5
94
330
1F
100
AcDbEntity
  8
text2
100
AcDbPolyline
 90
       33
 70
     1
 43
0.0
 10
1395.375
 20
618.625
 10
1400.375
 20
618.625
 10
1400.375
 20
599.125
 10
1399.625
 20
597.875
 10
1398.875
 20
596.625
 10
1397.875
 20
595.625
 10
1396.625
 20
594.875
 10
1395.125
 20
594.125
 10
1393.375
 20
593.625
 10
1386.625
 20
593.625
 10
1385.125
 20
594.125
 10
1383.625
 20
594.875
 10
1382.375
 20
595.625
 10
1381.125
 20
596.625
 10
1380.375
 20
597.875
 10
1379.875
 20
599.125
 10
1379.625
 20
600.625
 10
1379.625
 20
618.625
 10
1384.625
 20
618.625
 10
1384.625
 20
601.875
 10
1384.875
 20
600.625
 10
1385.375
 20
599.625
 10
1386.125
 20
598.625
 10
1387.125
 20
598.125
 10
1388.125
 20
597.625
 10
1389.375
 20
597.375
 10
1390.625
 20
597.375
 10
1391.875
 20
597.625
 10
1393.125
 20
598.125
 10
1393.875
 20
598.625
 10
1394.875
 20
599.625
 10
1395.375
 20
600.625
 10
1395.375
 20
618.625
  0
LWPOLYLINE
  5
95
330
1F
100
AcDbEntity
  8
text2
100
AcDbPolyline
 90
       41
 70
     1
 43
0.0
 10
1375.125
 20
608.125
 10
1375.375
 20
606.125
 10
1375.125
 20
604.125
 10
1374.875
 20
602.375
 10
1374.375
 20
600.375
 10
1373.625
 20
598.875
 10
1372.875
 20
597.125
 10
1371.625
 20
595.875
 10
1370.375
 20
594.875
 10
1368.625
 20
593.875
 10
1366.875
 20
593.625
 10
1365.125
 20
593.375
 10
1363.125
 20
593.625
 10
1361.375
 20
593.875
 10
1359.875
 20
594.875
 10
1358.375
 20
595.875
 10
1357.375
 20
597.125
 10
1356.375
 20
598.875
 10
1355.625
 20
600.375
 10
1355.125
 20
602.375
 10
1354.875
 20
604.125
 10
1354.625
 20
606.125
 10
1354.875
 20
608.125
 10
1355.125
 20
609.875
 10
1355.625
 20
611.875
 10
1356.375
 20
613.375
 10
1357.375
 20
615.125
 10
1358.375
 20
616.375
 10
1359.875
 20
617.375
 10
1361.375
 20
618.375
 10
1363.125
 20
618.875
 10
1365.125
 20
619.125
 10
1366.875
 20
618.875
 10
1368.625
 20
618.375
 10
1370.375
 20
617.375
 10
1371.625
 20
616.375
 10
1372.875
 20
615.125
 10
1373.625
 20
613.375
 10
1374.375
 20
611.875
 10
1374.875
 20
609.875
 10
1375.125
 20
608.125
  0
LWPOLYLINE
  5
96
330
1F
100
AcDbEntity
  8
text2
100
AcDbPolyline
 90
        9
 70
     1
 43
0.0
 10
187.29
 20
876.4300000000001
 10
187.29
 20
926.4300000000001
 10
215.86
 20
926.4300000000001
 10
223.0
 20
919.285
 10
223.0
 20
905.0
 10
215.86
 20
897.86
 10
194.43
 20
897.86
 10
194.43
 20
876.4300000000001
 10
187.29
 20
876.4300000000001
  0
LWPOLYLINE
  5
97
330
1F
100
AcDbEntity
  8
text2
100
AcDbPolyline
 90
       16
 70
     1
 43
0.0
 10
237.29
 20
876.4300000000001
 10
237.29
 20
887.145
 10
265.86
 20
908.575
 10
265.86
 20
915.715
 10
262.29
 20
919.285
 10
248.0
 20
919.285
 10
244.43
 20
915.715
 10
237.29
 20
919.285
 10
244.43
 20
926.4300000000001
 10
265.86
 20
926.4300000000001
 10
273.0
 20
919.285
 10
273.0
 20
905.0
 10
244.43
 20
883.575
 10
273.0
 20
883.575
 10
273.0
 20
876.4300000000001
 10
237.29
 20
876.4300000000001
  0
LWPOLYLINE
  5
98
330
1F
100
AcDbEntity
  8
text2
100
AcDbPolyline
 90
       16
 70
     1
 43
0.0
 10
775.288
 20
808.713
 10
775.288
 20
814.07
 10
789.572
 20
824.785
 10
789.572
 20
828.356
 10
787.787
 20
830.141
 10
780.642
 20
830.141
 10
778.8580000000001
 20
828.356
 10
775.288
 20
830.141
 10
778.8580000000001
 20
833.713
 10
789.572
 20
833.713
 10
793.143
 20
830.141
 10
793.143
 20
822.998
 10
778.8580000000001
 20
812.2860000000001
 10
793.143
 20
812.2860000000001
 10
793.143
 20
808.713
 10
775.288
 20
808.713
  0
LWPOLYLINE
  5
99
330
1F
100
AcDbEntity
  8
text2
100
AcDbPolyline
 90
       11
 70
     1
 43
0.0
 10
928.8580000000001
 20
808.713
 10
928.8580000000001
 20
812.2860000000001
 10
932.4300000000001
 20
812.2860000000001
 10
932.4300000000001
 20
830.141
 10
928.8580000000001
 20
830.141
 10
932.4300000000001
 20
833.713
 10
936.0
 20
833.713
 10
936.0
 20
812.2860000000001
 10
939.572
 20
812.2860000000001
 10
939.572
 20
808.713
 10
928.8580000000001
 20
808.713
  0
LWPOLYLINE
  5
9A
330
1F
100
AcDbEntity
  8
text2
100
AcDbPolyline
 90
       12
 70
     1
 43
0.0
 10
491.571
 20
806.928
 10
491.571
 20
815.855
 10
480.859
 20
815.855
 10
480.859
 20
819.428
 10
491.571
 20
831.928
 10
495.143
 20
831.928
 10
495.143
 20
819.428
 10
498.714
 20
819.428
 10
498.714
 20
815.855
 10
495.143
 20
815.855
 10
495.143
 20
806.928
 10
491.571
 20
806.928
  0
LWPOLYLINE
  5
9B
330
1F
100
AcDbEntity
  8
text2
100
AcDbPolyline
 90
       19
 70
     1
 43
0.0
 10
330.859
 20
810.501
 10
334.429
 20
812.285
 10
336.213
 20
810.501
 10
343.358
 20
810.501
 10
345.143
 20
812.285
 10
345.143
 20
817.643
 10
343.358
 20
819.428
 10
330.859
 20
819.428
 10
330.859
 20
831.928
 10
348.714
 20
831.928
 10
348.714
 20
828.356
 10
334.429
 20
828.356
 10
334.429
 20
823.0
 10
345.143
 20
823.0
 10
348.714
 20
819.428
 10
348.714
 20
810.501
 10
345.143
 20
806.928
 10
334.429
 20
806.928
 10
330.859
 20
810.501
  0
LWPOLYLINE
  5
9C
330
1F
100
AcDbEntity
  8
text2
100
AcDbPolyline
 90
       26
 70
     1
 43
0.0
 10
630.716
 20
761.573
 10
634.2860000000001
 20
763.357
 10
636.07
 20
761.573
 10
643.215
 20
761.573
 10
645.0
 20
763.357
 10
645.0
 20
765.143
 10
641.428
 20
768.715
 10
637.8580000000001
 20
768.715
 10
637.8580000000001
 20
772.285
 10
641.428
 20
772.285
 10
645.0
 20
775.857
 10
645.0
 20
777.643
 10
643.215
 20
779.428
 10
636.07
 20
779.428
 10
634.2860000000001
 20
777.643
 10
630.716
 20
779.428
 10
634.2860000000001
 20
783.0
 10
645.0
 20
783.0
 10
648.571
 20
779.428
 10
648.571
 20
774.072
 10
645.0
 20
770.5
 10
648.571
 20
766.927
 10
648.571
 20
761.573
 10
645.0
 20
758.0
 10
634.2860000000001
 20
758.0
 10
630.716
 20
761.573
  0
ENDSEC
  0
SECTION
  2
OBJECTS
  0
DICTIONARY
  5
C
330
0
100
AcDbDictionary
281
     1
  3
ACAD_GROUP
350
D
  3
ACAD_LAYOUT
350
1A
  3
ACAD_MLEADERSTYLE
350
9E
  3
ACAD_MLINESTYLE
350
17
  3
ACAD_PLOTSETTINGS
350
19
  3
ACAD_PLOTSTYLENAME
350
E
  3
ACAD_SCALELIST
350
3B
  3
ACAD_TABLESTYLE
350
9D
  3
ACAD_VISUALSTYLE
350
2A
  0
DICTIONARY
  5
D
102
{ACAD_REACTORS
330
C
102
}
330
C
100
AcDbDictionary
281
     1
  0
DICTIONARY
  5
1A
102
{ACAD_REACTORS
330
C
102
}
330
C
100
AcDbDictionary
281
     1
  3
Layout1
350
1E
  3
Layout2
350
26
  3
Model
350
22
  0
DICTIONARY
  5
9E
102
{ACAD_REACTORS
330
C
102
}
330
C
100
AcDbDictionary
281
     1
  0
DICTIONARY
  5
17
102
{ACAD_REACTORS
330
C
102
}
330
C
100
AcDbDictionary
281
     1
  3
Standard
350
18
  0
DICTIONARY
  5
19
102
{ACAD_REACTORS
330
C
102
}
330
C
100
AcDbDictionary
281
     1
  0
ACDBDICTIONARYWDFLT
  5
E
102
{ACAD_REACTORS
330
C
102
}
330
C
100
AcDbDictionary
281
     1
  3
Normal
350
F
100
AcDbDictionaryWithDefault
340
F
  0
DICTIONARY
  5
3B
102
{ACAD_REACTORS
330
C
102
}
330
C
100
AcDbDictionary
281
     1
  3
A0
350
3C
  3
A1
350
3D
  3
A2
350
3E
  3
A3
350
3F
  3
A4
350
40
  3
A5
350
41
  3
A6
350
42
  3
A7
350
43
  3
A8
350
44
  3
A9
350
45
  3
B0
350
46
  3
B1
350
47
  3
B2
350
48
  3
B3
350
49
  3
B4
350
4A
  3
B5
350
4B
  3
B6
350
4C
  3
B7
350
4D
  3
B8
350
4E
  3
B9
350
4F
  3
C0
350
50
  3
C1
350
51
  3
C2
350
52
  3
C3
350
53
  3
C4
350
54
  3
C5
350
55
  3
C6
350
56
  3
C7
350
57
  3
C8
350
58
  3
C9
350
59
  3
D0
350
5A
  3
D1
350
5B
  3
D2
350
5C
  0
DICTIONARY
  5
9D
102
{ACAD_REACTORS
330
C
102
}
330
C
100
AcDbDictionary
281
     1
  0
DICTIONARY
  5
2A
102
{ACAD_REACTORS
330
C
102
}
330
C
100
AcDbDictionary
281
     1
  3
2dWireframe
350
2F
  3
3D Hidden
350
31
  3
3dWireframe
350
30
  3
Basic
350
32
  3
Brighten
350
36
  3
ColorChange
350
3A
  3
Conceptual
350
34
  3
Dim
350
35
  3
Facepattern
350
39
  3
Flat
350
2B
  3
FlatWithEdges
350
2C
  3
Gouraud
350
2D
  3
GouraudWithEdges
350
2E
  3
Linepattern
350
38
  3
Realistic
350
33
  3
Thicken
350
37
  0
LAYOUT
  5
1E
102
{ACAD_REACTORS
330
1A
102
}
330
1A
100
AcDbPlotSettings
  1

  2
none_device
  4

  6

 40
0.0
 41
0.0
 42
0.0
 43
0.0
 44
0.0
 45
0.0
 46
0.0
 47
0.0
 48
0.0
 49
0.0
140
0.0
141
0.0
142
1.0
143
1.0
 70
   688
 72
     0
 73
     0
 74
     5
  7

 75
    16
 76
     0
 77
     2
 78
   300
147
1.0
148
0.0
149
0.0
100
AcDbLayout
  1
Layout1
 70
     1
 71
     1
 10
0.0
 20
0.0
 11
12.0
 21
9.0
 12
0.0
 22
0.0
 32
0.0
 14
1.000000000000000E+20
 24
1.000000000000000E+20
 34
1.000000000000000E+20
 15
-1.000000000000000E+20
 25
-1.000000000000000E+20
 35
-1.000000000000000E+20
146
0.0
 13
0.0
 23
0.0
 33
0.0
 16
1.0
 26
0.0
 36
0.0
 17
0.0
 27
1.0
 37
0.0
 76
     0
330
1B
  0
LAYOUT
  5
26
102
{ACAD_REACTORS
330
1A
102
}
330
1A
100
AcDbPlotSettings
  1

  2
none_device
  4

  6

 40
0.0
 41
0.0
 42
0.0
 43
0.0
 44
0.0
 45
0.0
 46
0.0
 47
0.0
 48
0.0
 49
0.0
140
0.0
141
0.0
142
1.0
143
1.0
 70
   688
 72
     0
 73
     0
 74
     5
  7

 75
    16
 76
     0
 77
     2
 78
   300
147
1.0
148
0.0
149
0.0
100
AcDbLayout
  1
Layout2
 70
     1
 71
     2
 10
0.0
 20
0.0
 11
0.0
 21
0.0
 12
0.0
 22
0.0
 32
0.0
 14
0.0
 24
0.0
 34
0.0
 15
0.0
 25
0.0
 35
0.0
146
0.0
 13
0.0
 23
0.0
 33
0.0
 16
1.0
 26
0.0
 36
0.0
 17
0.0
 27
1.0
 37
0.0
 76
     0
330
23
  0
LAYOUT
  5
22
102
{ACAD_REACTORS
330
1A
102
}
330
1A
100
AcDbPlotSettings
  1

  2
none_device
  4

  6

 40
0.0
 41
0.0
 42
0.0
 43
0.0
 44
0.0
 45
0.0
 46
0.0
 47
0.0
 48
0.0
 49
0.0
140
0.0
141
0.0
142
1.0
143
1.0
 70
  1712
 72
     0
 73
     0
 74
     0
  7

 75
     0
 76
     0
 77
     2
 78
   300
147
1.0
148
0.0
149
0.0
100
AcDbLayout
  1
Model
 70
     1
 71
     0
 10
0.0
 20
0.0
 11
12.0
 21
9.0
 12
0.0
 22
0.0
 32
0.0
 14
1.000000000000000E+20
 24
1.000000000000000E+20
 34
1.000000000000000E+20
 15
-1.000000000000000E+20
 25
-1.000000000000000E+20
 35
-1.000000000000000E+20
146
0.0
 13
0.0
 23
0.0
 33
0.0
 16
1.0
 26
0.0
 36
0.0
 17
0.0
 27
1.0
 37
0.0
 76
     0
330
1F
331
29
  0
MLINESTYLE
  5
18
102
{ACAD_REACTORS
330
17
102
}
330
17
100
AcDbMlineStyle
  2
Standard
 70
     0
  3

 62
   256
 51
90.0
 52
90.0
 71
     2
 49
0.5
 62
   256
  6
BYLAYER
 49
-0.5
 62
   256
  6
BYLAYER
  0
ACDBPLACEHOLDER
  5
F
102
{ACAD_REACTORS
330
E
102
}
330
E
  0
SCALE
  5
3C
102
{ACAD_REACTORS
330
3B
102
}
330
3B
100
AcDbScale
 70
     0
300
1:1
140
1.0
141
1.0
290
     1
  0
SCALE
  5
3D
102
{ACAD_REACTORS
330
3B
102
}
330
3B
100
AcDbScale
 70
     0
300
1:2
140
1.0
141
2.0
290
     0
  0
SCALE
  5
3E
102
{ACAD_REACTORS
330
3B
102
}
330
3B
100
AcDbScale
 70
     0
300
1:4
140
1.0
141
4.0
290
     0
  0
SCALE
  5
3F
102
{ACAD_REACTORS
330
3B
102
}
330
3B
100
AcDbScale
 70
     0
300
1:5
140
1.0
141
5.0
290
     0
  0
SCALE
  5
40
102
{ACAD_REACTORS
330
3B
102
}
330
3B
100
AcDbScale
 70
     0
300
1:8
140
1.0
141
8.0
290
     0
  0
SCALE
  5
41
102
{ACAD_REACTORS
330
3B
102
}
330
3B
100
AcDbScale
 70
     0
300
1:10
140
1.0
141
10.0
290
     0
  0
SCALE
  5
42
102
{ACAD_REACTORS
330
3B
102
}
330
3B
100
AcDbScale
 70
     0
300
1:16
140
1.0
141
16.0
290
     0
  0
SCALE
  5
43
102
{ACAD_REACTORS
330
3B
102
}
330
3B
100
AcDbScale
 70
     0
300
1:20
140
1.0
141
20.0
290
     0
  0
SCALE
  5
44
102
{ACAD_REACTORS
330
3B
102
}
330
3B
100
AcDbScale
 70
     0
300
1:30
140
1.0
141
30.0
290
     0
  0
SCALE
  5
45
102
{ACAD_REACTORS
330
3B
102
}
330
3B
100
AcDbScale
 70
     0
300
1:40
140
1.0
141
40.0
290
     0
  0
SCALE
  5
46
102
{ACAD_REACTORS
330
3B
102
}
330
3B
100
AcDbScale
 70
     0
300
1:50
140
1.0
141
50.0
290
     0
  0
SCALE
  5
47
102
{ACAD_REACTORS
330
3B
102
}
330
3B
100
AcDbScale
 70
     0
300
1:100
140
1.0
141
100.0
290
     0
  0
SCALE
  5
48
102
{ACAD_REACTORS
330
3B
102
}
330
3B
100
AcDbScale
 70
     0
300
2:1
140
2.0
141
1.0
290
     0
  0
SCALE
  5
49
102
{ACAD_REACTORS
330
3B
102
}
330
3B
100
AcDbScale
 70
     0
300
4:1
140
4.0
141
1.0
290
     0
  0
SCALE
  5
4A
102
{ACAD_REACTORS
330
3B
102
}
330
3B
100
AcDbScale
 70
     0
300
8:1
140
8.0
141
1.0
290
     0
  0
SCALE
  5
4B
102
{ACAD_REACTORS
330
3B
102
}
330
3B
100
AcDbScale
 70
     0
300
10:1
140
10.0
141
1.0
290
     0
  0
SCALE
  5
4C
102
{ACAD_REACTORS
330
3B
102
}
330
3B
100
AcDbScale
 70
     0
300
100:1
140
100.0
141
1.0
290
     0
  0
SCALE
  5
4D
102
{ACAD_REACTORS
330
3B
102
}
330
3B
100
AcDbScale
 70
     0
300
1/128" = 1'-0"
140
0.0078125
141
12.0
290
     0
  0
SCALE
  5
4E
102
{ACAD_REACTORS
330
3B
102
}
330
3B
100
AcDbScale
 70
     0
300
1/64" = 1'-0"
140
0.015625
141
12.0
290
     0
  0
SCALE
  5
4F
102
{ACAD_REACTORS
330
3B
102
}
330
3B
100
AcDbScale
 70
     0
300
1/32" = 1'-0"
140
0.03125
141
12.0
290
     0
  0
SCALE
  5
50
102
{ACAD_REACTORS
330
3B
102
}
330
3B
100
AcDbScale
 70
     0
300
1/16" = 1'-0"
140
0.0625
141
12.0
290
     0
  0
SCALE
  5
51
102
{ACAD_REACTORS
330
3B
102
}
330
3B
100
AcDbScale
 70
     0
300
3/32" = 1'-0"
140
0.09375
141
12.0
290
     0
  0
SCALE
  5
52
102
{ACAD_REACTORS
330
3B
102
}
330
3B
100
AcDbScale
 70
     0
300
1/8" = 1'-0"
140
0.125
141
12.0
290
     0
  0
SCALE
  5
53
102
{ACAD_REACTORS
330
3B
102
}
330
3B
100
AcDbScale
 70
     0
300
3/16" = 1'-0"
140
0.1875
141
12.0
290
     0
  0
SCALE
  5
54
102
{ACAD_REACTORS
330
3B
102
}
330
3B
100
AcDbScale
 70
     0
300
1/4" = 1'-0"
140
0.25
141
12.0
290
     0
  0
SCALE
  5
55
102
{ACAD_REACTORS
330
3B
102
}
330
3B
100
AcDbScale
 70
     0
300
3/8" = 1'-0"
140
0.375
141
12.0
290
     0
  0
SCALE
  5
56
102
{ACAD_REACTORS
330
3B
102
}
330
3B
100
AcDbScale
 70
     0
300
1/2" = 1'-0"
140
0.5
141
12.0
290
     0
  0
SCALE
  5
57
102
{ACAD_REACTORS
330
3B
102
}
330
3B
100
AcDbScale
 70
     0
300
3/4" = 1'-0"
140
0.75
141
12.0
290
     0
  0
SCALE
  5
58
102
{ACAD_REACTORS
330
3B
102
}
330
3B
100
AcDbScale
 70
     0
300
1" = 1'-0"
140
1.0
141
12.0
290
     0
  0
SCALE
  5
59
102
{ACAD_REACTORS
330
3B
102
}
330
3B
100
AcDbScale
 70
     0
300
1-1/2" = 1'-0"
140
1.5
141
12.0
290
     0
  0
SCALE
  5
5A
102
{ACAD_REACTORS
330
3B
102
}
330
3B
100
AcDbScale
 70
     0
300
3" = 1'-0"
140
3.0
141
12.0
290
     0
  0
SCALE
  5
5B
102
{ACAD_REACTORS
330
3B
102
}
330
3B
100
AcDbScale
 70
     0
300
6" = 1'-0"
140
6.0
141
12.0
290
     0
  0
SCALE
  5
5C
102
{ACAD_REACTORS
330
3B
102
}
330
3B
100
AcDbScale
 70
     0
300
1'-0" = 1'-0"
140
12.0
141
12.0
290
     0
  0
VISUALSTYLE
  5
2F
102
{ACAD_REACTORS
330
2A
102
}
330
2A
100
AcDbVisualStyle
  2
2dWireframe
 70
     4
 71
     0
 72
     2
 73
     0
 90
        0
 40
-0.6
 41
-30.0
 62
     5
 63
     7
421
 16777215
 74
     1
 91
        4
 64
     7
 65
   257
 75
     1
175
     1
 42
1.0
 92
        0
 66
   257
 43
1.0
 76
     1
 77
     6
 78
     2
 67
     7
 79
     5
170
     0
171
     0
290
     0
174
     0
 93
        1
 44
0.0
173
     0
291
     0
 45
0.0
1001
ACAD
1000
AcDbSavedByObjectVersion
1070
     0
  0
VISUALSTYLE
  5
31
102
{ACAD_REACTORS
330
2A
102
}
330
2A
100
AcDbVisualStyle
  2
3D Hidden
 70
     6
 71
     1
 72
     2
 73
     2
 90
        0
 40
-0.6
 41
-30.0
 62
     5
 63
     7
421
 16777215
 74
     2
 91
        2
 64
     7
 65
   257
 75
     2
175
     1
 42
40.0
 92
        0
 66
   257
 43
1.0
 76
     1
 77
     6
 78
     2
 67
     7
 79
     3
170
     0
171
     0
290
     0
174
     0
 93
        1
 44
0.0
173
     0
291
     0
 45
0.0
1001
ACAD
1000
AcDbSavedByObjectVersion
1070
     0
  0
VISUALSTYLE
  5
30
102
{ACAD_REACTORS
330
2A
102
}
330
2A
100
AcDbVisualStyle
  2
3dWireframe
 70
     5
 71
     0
 72
     2
 73
     0
 90
        0
 40
-0.6
 41
-30.0
 62
     5
 63
     7
421
 16777215
 74
     1
 91
        4
 64
     7
 65
   257
 75
     1
175
     1
 42
1.0
 92
        0
 66
   257
 43
1.0
 76
     1
 77
     6
 78
     2
 67
     7
 79
     5
170
     0
171
     0
290
     0
174
     0
 93
        1
 44
0.0
173
     0
291
     0
 45
0.0
1001
ACAD
1000
AcDbSavedByObjectVersion
1070
     0
  0
VISUALSTYLE
  5
32
102
{ACAD_REACTORS
330
2A
102
}
330
2A
100
AcDbVisualStyle
  2
Basic
 70
     7
 71
     1
 72
     0
 73
     1
 90
        0
 40
-0.6
 41
-30.0
 62
     5
 63
     7
421
 16777215
 74
     0
 91
        4
 64
     7
 65
   257
 75
     1
175
     1
 42
1.0
 92
        8
 66
     7
 43
1.0
 76
     1
 77
     6
 78
     2
 67
     7
 79
     5
170
     0
171
     0
290
     0
174
     0
 93
        1
 44
0.0
173
     0
291
     1
 45
0.0
1001
ACAD
1000
AcDbSavedByObjectVersion
1070
     0
  0
VISUALSTYLE
  5
36
102
{ACAD_REACTORS
330
2A
102
}
330
2A
100
AcDbVisualStyle
  2
Brighten
 70
    12
 71
     2
 72
     2
 73
     0
 90
        0
 40
-0.6
 41
-30.0
 62
     5
 63
     7
421
 16777215
 74
     1
 91
        4
 64
     7
 65
   257
 75
     1
175
     1
 42
1.0
 92
        8
 66
     7
 43
1.0
 76
     1
 77
     6
 78
     2
 67
     7
 79
     5
170
     0
171
     0
290
     0
174
     0
 93
        1
 44
50.0
173
     0
291
     1
 45
0.0
1001
ACAD
1000
AcDbSavedByObjectVersion
1070
     0
  0
VISUALSTYLE
  5
3A
102
{ACAD_REACTORS
330
2A
102
}
330
2A
100
AcDbVisualStyle
  2
ColorChange
 70
    16
 71
     2
 72
     2
 73
     3
 90
        0
 40
-0.6
 41
-30.0
 62
     5
 63
     8
421
  8421504
 74
     1
 91
        4
 64
     7
 65
   257
 75
     1
175
     1
 42
1.0
 92
        8
 66
     8
424
  8421504
 43
1.0
 76
     1
 77
     6
 78
     2
 67
     7
 79
     5
170
     0
171
     0
290
     0
174
     0
 93
        1
 44
0.0
173
     0
291
     1
 45
0.0
1001
ACAD
1000
AcDbSavedByObjectVersion
1070
     0
  0
VISUALSTYLE
  5
34
102
{ACAD_REACTORS
330
2A
102
}
330
2A
100
AcDbVisualStyle
  2
Conceptual
 70
     9
 71
     3
 72
     2
 73
     0
 90
        0
 40
-0.6
 41
-30.0
 62
     5
 63
     7
421
 16777215
 74
     2
 91
        2
 64
     7
 65
   257
 75
     1
175
     1
 42
40.0
 92
        8
 66
     7
 43
1.0
 76
     1
 77
     6
 78
     2
 67
     7
 79
     3
170
     0
171
     0
290
     0
174
     0
 93
        1
 44
0.0
173
     0
291
     0
 45
0.0
1001
ACAD
1000
AcDbSavedByObjectVersion
1070
     0
  0
VISUALSTYLE
  5
35
102
{ACAD_REACTORS
330
2A
102
}
330
2A
100
AcDbVisualStyle
  2
Dim
 70
    11
 71
     2
 72
     2
 73
     0
 90
        0
 40
-0.6
 41
-30.0
 62
     5
 63
     7
421
 16777215
 74
     1
 91
        4
 64
     7
 65
   257
 75
     1
175
     1
 42
1.0
 92
        8
 66
     7
 43
1.0
 76
     1
 77
     6
 78
     2
 67
     7
 79
     5
170
     0
171
     0
290
     0
174
     0
 93
        1
 44
-50.0
173
     0
291
     1
 45
0.0
1001
ACAD
1000
AcDbSavedByObjectVersion
1070
     0
  0
VISUALSTYLE
  5
39
102
{ACAD_REACTORS
330
2A
102
}
330
2A
100
AcDbVisualStyle
  2
Facepattern
 70
    15
 71
     2
 72
     2
 73
     0
 90
        0
 40
-0.6
 41
-30.0
 62
     5
 63
     7
421
 16777215
 74
     1
 91
        4
 64
     7
 65
   257
 75
     1
175
     1
 42
1.0
 92
        8
 66
     7
 43
1.0
 76
     1
 77
     6
 78
     2
 67
     7
 79
     5
170
     0
171
     0
290
     0
174
     0
 93
        1
 44
0.0
173
     0
291
     1
 45
0.0
1001
ACAD
1000
AcDbSavedByObjectVersion
1070
     0
  0
VISUALSTYLE
  5
2B
102
{ACAD_REACTORS
330
2A
102
}
330
2A
100
AcDbVisualStyle
  2
Flat
 70
     0
 71
     2
 72
     1
 73
     1
 90
        2
 40
-0.6
 41
30.0
 62
     5
 63
     7
421
 16777215
 74
     0
 91
        4
 64
     7
 65
   257
 75
     1
175
     1
 42
1.0
 92
        8
 66
     7
 43
1.0
 76
     1
 77
     6
 78
     2
 67
     7
 79
     5
170
     0
171
     0
290
     0
174
     0
 93
       13
 44
0.0
173
     0
291
     1
 45
0.0
1001
ACAD
1000
AcDbSavedByObjectVersion
1070
     0
  0
VISUALSTYLE
  5
2C
102
{ACAD_REACTORS
330
2A
102
}
330
2A
100
AcDbVisualStyle
  2
FlatWithEdges
 70
     1
 71
     2
 72
     1
 73
     1
 90
        2
 40
-0.6
 41
30.0
 62
     5
 63
     7
421
 16777215
 74
     1
 91
        4
 64
     7
 65
   257
 75
     1
175
     1
 42
1.0
 92
        0
 66
   257
 43
1.0
 76
     1
 77
     6
 78
     2
 67
     7
 79
     5
170
     0
171
     0
290
     0
174
     0
 93
       13
 44
0.0
173
     0
291
     1
 45
0.0
1001
ACAD
1000
AcDbSavedByObjectVersion
1070
     0
  0
VISUALSTYLE
  5
2D
102
{ACAD_REACTORS
330
2A
102
}
330
2A
100
AcDbVisualStyle
  2
Gouraud
 70
     2
 71
     2
 72
     2
 73
     1
 90
        2
 40
-0.6
 41
30.0
 62
     5
 63
     7
421
 16777215
 74
     0
 91
        4
 64
     7
 65
   257
 75
     1
175
     1
 42
1.0
 92
        0
 66
     7
 43
1.0
 76
     1
 77
     6
 78
     2
 67
     7
 79
     5
170
     0
171
     0
290
     0
174
     0
 93
       13
 44
0.0
173
     0
291
     1
 45
0.0
1001
ACAD
1000
AcDbSavedByObjectVersion
1070
     0
  0
VISUALSTYLE
  5
2E
102
{ACAD_REACTORS
330
2A
102
}
330
2A
100
AcDbVisualStyle
  2
GouraudWithEdges
 70
     3
 71
     2
 72
     2
 73
     1
 90
        2
 40
-0.6
 41
30.0
 62
     5
 63
     7
421
 16777215
 74
     1
 91
        4
 64
     7
 65
   257
 75
     1
175
     1
 42
1.0
 92
        0
 66
   257
 43
1.0
 76
     1
 77
     6
 78
     2
 67
     7
 79
     5
170
     0
171
     0
290
     0
174
     0
 93
       13
 44
0.0
173
     0
291
     1
 45
0.0
1001
ACAD
1000
AcDbSavedByObjectVersion
1070
     0
  0
VISUALSTYLE
  5
38
102
{ACAD_REACTORS
330
2A
102
}
330
2A
100
AcDbVisualStyle
  2
Linepattern
 70
    14
 71
     2
 72
     2
 73
     0
 90
        0
 40
-0.6
 41
-30.0
 62
     5
 63
     7
421
 16777215
 74
     1
 91
        4
 64
     7
 65
   257
 75
     7
175
     7
 42
1.0
 92
        8
 66
     7
 43
1.0
 76
     1
 77
     6
 78
     2
 67
     7
 79
     5
170
     0
171
     0
290
     0
174
     0
 93
        1
 44
0.0
173
     0
291
     1
 45
0.0
1001
ACAD
1000
AcDbSavedByObjectVersion
1070
     0
  0
VISUALSTYLE
  5
33
102
{ACAD_REACTORS
330
2A
102
}
330
2A
100
AcDbVisualStyle
  2
Realistic
 70
     8
 71
     2
 72
     2
 73
     0
 90
        0
 40
-0.6
 41
-30.0
 62
     5
 63
     7
421
 16777215
 74
     1
 91
        0
 64
     7
 65
   257
 75
     1
175
     1
 42
1.0
 92
        8
 66
     8
424
  7895160
 43
1.0
 76
     1
 77
     6
 78
     2
 67
     7
 79
     5
170
     0
171
     0
290
     0
174
     0
 93
       13
 44
0.0
173
     0
291
     0
 45
0.0
1001
ACAD
1000
AcDbSavedByObjectVersion
1070
     0
  0
VISUALSTYLE
  5
37
102
{ACAD_REACTORS
330
2A
102
}
330
2A
100
AcDbVisualStyle
  2
Thicken
 70
    13
 71
     2
 72
     2
 73
     0
 90
        0
 40
-0.6
 41
-30.0
 62
     5
 63
     7
421
 16777215
 74
     1
 91
        4
 64
     7
 65
   257
 75
     1
175
     1
 42
1.0
 92
       12
 66
     7
 43
1.0
 76
     1
 77
     6
 78
     2
 67
     7
 79
     5
170
     0
171
     0
290
     0
174
     0
 93
        1
 44
0.0
173
     0
291
     1
 45
0.0
1001
ACAD
1000
AcDbSavedByObjectVersion
1070
     0
  0
ENDSEC
  0
EOF
