  0
SECTION
  2
HEADER
  9
$ACADVER
  1
AC1018
  9
$ACADMAINTVER
 70
     0
  9
$DWGCODEPAGE
  3
ANSI_1252
  9
$INSBASE
 10
0.0
 20
0.0
 30
0.0
  9
$EXTMIN
 10
1.000000000000000E+20
 20
1.000000000000000E+20
 30
1.000000000000000E+20
  9
$EXTMAX
 10
-1.000000000000000E+20
 20
-1.000000000000000E+20
 30
-1.000000000000000E+20
  9
$LIMMIN
 10
0.0
 20
0.0
  9
$LIMMAX
 10
12.0
 20
9.0
  9
$ORTHOMODE
 70
     0
  9
$REGENMODE
 70
     1
  9
$FILLMODE
 70
     1
  9
$QTEXTMODE
 70
     0
  9
$MIRRTEXT
 70
     1
  9
$LTSCALE
 40
1.0
  9
$ATTMODE
 70
     1
  9
$TEXTSIZE
 40
0.2
  9
$TRACEWID
 40
0.05
  9
$TEXTSTYLE
  7
Standard
  9
$CLAYER
  8
0
  9
$CELTYPE
  6
ByLayer
  9
$CECOLOR
 62
   256
  9
$CELTSCALE
 40
1.0
  9
$DISPSILH
 70
     0
  9
$DIMSCALE
 40
1.0
  9
$DIMASZ
 40
0.18
  9
$DIMEXO
 40
0.0625
  9
$DIMDLI
 40
0.38
  9
$DIMRND
 40
0.0
  9
$DIMDLE
 40
0.0
  9
$DIMEXE
 40
0.18
  9
$DIMTP
 40
0.0
  9
$DIMTM
 40
0.0
  9
$DIMTXT
 40
0.18
  9
$DIMCEN
 40
0.09
  9
$DIMTSZ
 40
0.0
  9
$DIMTOL
 70
     0
  9
$DIMLIM
 70
     0
  9
$DIMTIH
 70
     1
  9
$DIMTOH
 70
     1
  9
$DIMSE1
 70
     0
  9
$DIMSE2
 70
     0
  9
$DIMTAD
 70
     0
  9
$DIMZIN
 70
     0
  9
$DIMBLK
  1

  9
$DIMASO
 70
     1
  9
$DIMSHO
 70
     1
  9
$DIMPOST
  1

  9
$DIMAPOST
  1

  9
$DIMALT
 70
     0
  9
$DIMALTD
 70
     2
  9
$DIMALTF
 40
25.4
  9
$DIMLFAC
 40
1.0
  9
$DIMTOFL
 70
     0
  9
$DIMTVP
 40
0.0
  9
$DIMTIX
 70
     0
  9
$DIMSOXD
 70
     0
  9
$DIMSAH
 70
     0
  9
$DIMBLK1
  1

  9
$DIMBLK2
  1

  9
$DIMSTYLE
  2
Standard
  9
$DIMCLRD
 70
     0
  9
$DIMCLRE
 70
     0
  9
$DIMCLRT
 70
     0
  9
$DIMTFAC
 40
1.0
  9
$DIMGAP
 40
0.09
  9
$DIMJUST
 70
     0
  9
$DIMSD1
 70
     0
  9
$DIMSD2
 70
     0
  9
$DIMTOLJ
 70
     1
  9
$DIMTZIN
 70
     0
  9
$DIMALTZ
 70
     0
  9
$DIMALTTZ
 70
     0
  9
$DIMUPT
 70
     0
  9
$DIMDEC
 70
     4
  9
$DIMTDEC
 70
     4
  9
$DIMALTU
 70
     2
  9
$DIMALTTD
 70
     2
  9
$DIMTXSTY
  7
Standard
  9
$DIMAUNIT
 70
     0
  9
$DIMADEC
 70
     0
  9
$DIMALTRND
 40
0.0
  9
$DIMAZIN
 70
     0
  9
$DIMDSEP
 70
    46
  9
$DIMATFIT
 70
     3
  9
$DIMFRAC
 70
     0
  9
$DIMLDRBLK
  1

  9
$DIMLUNIT
 70
     2
  9
$DIMLWD
 70
    -2
  9
$DIMLWE
 70
    -2
  9
$DIMTMOVE
 70
     0
  9
$LUNITS
 70
     2
  9
$LUPREC
 70
     4
  9
$SKETCHINC
 40
0.1
  9
$FILLETRAD
 40
0.5
  9
$AUNITS
 70
     0
  9
$AUPREC
 70
     0
  9
$MENU
  1
.
  9
$ELEVATION
 40
0.0
  9
$PELEVATION
 40
0.0
  9
$THICKNESS
 40
0.0
  9
$LIMCHECK
 70
     0
  9
$CHAMFERA
 40
0.5
  9
$CHAMFERB
 40
0.5
  9
$CHAMFERC
 40
1.0
  9
$CHAMFERD
 40
0.0
  9
$SKPOLY
 70
     0
  9
$TDCREATE
 40
2456167.482753044
  9
$TDUCREATE
 40
2456167.399419711
  9
$TDUPDATE
 40
2456167.482753056
  9
$TDUUPDATE
 40
2456167.399419722
  9
$TDINDWG
 40
0.0000000116
  9
$TDUSRTIMER
 40
0.0000000116
  9
$USRTIMER
 70
     1
  9
$ANGBASE
 50
0.0
  9
$ANGDIR
 70
     0
  9
$PDMODE
 70
     0
  9
$PDSIZE
 40
0.0
  9
$PLINEWID
 40
0.0
  9
$SPLFRAME
 70
     0
  9
$SPLINETYPE
 70
     6
  9
$SPLINESEGS
 70
     8
  9
$HANDSEED
  5
82
  9
$SURFTAB1
 70
     6
  9
$SURFTAB2
 70
     6
  9
$SURFTYPE
 70
     6
  9
$SURFU
 70
     6
  9
$SURFV
 70
     6
  9
$UCSBASE
  2

  9
$UCSNAME
  2

  9
$UCSORG
 10
0.0
 20
0.0
 30
0.0
  9
$UCSXDIR
 10
1.0
 20
0.0
 30
0.0
  9
$UCSYDIR
 10
0.0
 20
1.0
 30
0.0
  9
$UCSORTHOREF
  2

  9
$UCSORTHOVIEW
 70
     0
  9
$UCSORGTOP
 10
0.0
 20
0.0
 30
0.0
  9
$UCSORGBOTTOM
 10
0.0
 20
0.0
 30
0.0
  9
$UCSORGLEFT
 10
0.0
 20
0.0
 30
0.0
  9
$UCSORGRIGHT
 10
0.0
 20
0.0
 30
0.0
  9
$UCSORGFRONT
 10
0.0
 20
0.0
 30
0.0
  9
$UCSORGBACK
 10
0.0
 20
0.0
 30
0.0
  9
$PUCSBASE
  2

  9
$PUCSNAME
  2

  9
$PUCSORG
 10
0.0
 20
0.0
 30
0.0
  9
$PUCSXDIR
 10
1.0
 20
0.0
 30
0.0
  9
$PUCSYDIR
 10
0.0
 20
1.0
 30
0.0
  9
$PUCSORTHOREF
  2

  9
$PUCSORTHOVIEW
 70
     0
  9
$PUCSORGTOP
 10
0.0
 20
0.0
 30
0.0
  9
$PUCSORGBOTTOM
 10
0.0
 20
0.0
 30
0.0
  9
$PUCSORGLEFT
 10
0.0
 20
0.0
 30
0.0
  9
$PUCSORGRIGHT
 10
0.0
 20
0.0
 30
0.0
  9
$PUCSORGFRONT
 10
0.0
 20
0.0
 30
0.0
  9
$PUCSORGBACK
 10
0.0
 20
0.0
 30
0.0
  9
$USERI1
 70
     0
  9
$USERI2
 70
     0
  9
$USERI3
 70
     0
  9
$USERI4
 70
     0
  9
$USERI5
 70
     0
  9
$USERR1
 40
0.0
  9
$USERR2
 40
0.0
  9
$USERR3
 40
0.0
  9
$USERR4
 40
0.0
  9
$USERR5
 40
0.0
  9
$WORLDVIEW
 70
     1
  9
$SHADEDGE
 70
     3
  9
$SHADEDIF
 70
    70
  9
$TILEMODE
 70
     1
  9
$MAXACTVP
 70
    64
  9
$PINSBASE
 10
0.0
 20
0.0
 30
0.0
  9
$PLIMCHECK
 70
     0
  9
$PEXTMIN
 10
1.000000000000000E+20
 20
1.000000000000000E+20
 30
1.000000000000000E+20
  9
$PEXTMAX
 10
-1.000000000000000E+20
 20
-1.000000000000000E+20
 30
-1.000000000000000E+20
  9
$PLIMMIN
 10
0.0
 20
0.0
  9
$PLIMMAX
 10
12.0
 20
9.0
  9
$UNITMODE
 70
     0
  9
$VISRETAIN
 70
     1
  9
$PLINEGEN
 70
     0
  9
$PSLTSCALE
 70
     1
  9
$TREEDEPTH
 70
  3020
  9
$CMLSTYLE
  2
Standard
  9
$CMLJUST
 70
     0
  9
$CMLSCALE
 40
1.0
  9
$PROXYGRAPHICS
 70
     1
  9
$MEASUREMENT
 70
     0
  9
$CELWEIGHT
370
    -1
  9
$ENDCAPS
280
     0
  9
$JOINSTYLE
280
     0
  9
$LWDISPLAY
290
     0
  9
$INSUNITS
 70
    13
  9
$HYPERLINKBASE
  1

  9
$STYLESHEET
  1

  9
$XEDIT
290
     1
  9
$CEPSNTYPE
380
     0
  9
$PSTYLEMODE
290
     1
  9
$FINGERPRINTGUID
  2
{9073374F-0AC9-4B56-B524-DE61F317CD5E}
  9
$VERSIONGUID
  2
{FAEB1C32-E019-11D5-929B-00C0DF256EC4}
  9
$EXTNAMES
290
     1
  9
$PSVPSCALE
 40
0.0
  9
$OLESTARTUP
290
     0
  9
$SORTENTS
280
   127
  9
$INDEXCTL
280
     0
  9
$HIDETEXT
280
     1
  9
$XCLIPFRAME
290
     0
  9
$HALOGAP
280
     0
  9
$OBSCOLOR
 70
   257
  9
$OBSLTYPE
280
     0
  9
$INTERSECTIONDISPLAY
280
     0
  9
$INTERSECTIONCOLOR
 70
   257
  9
$DIMASSOC
280
     2
  9
$PROJECTNAME
  1

  0
ENDSEC
  0
SECTION
  2
CLASSES
  0
CLASS
  1
ACDBDICTIONARYWDFLT
  2
AcDbDictionaryWithDefault
  3
ObjectDBX Classes
 90
        0
 91
        3
280
     0
281
     0
  0
CLASS
  1
VISUALSTYLE
  2
AcDbVisualStyle
  3
ObjectDBX Classes
 90
     4095
 91
        3
280
     0
281
     0
  0
CLASS
  1
SCALE
  2
AcDbScale
  3
ObjectDBX Classes
 90
     1153
 91
        3
280
     0
281
     0
  0
ENDSEC
  0
SECTION
  2
TABLES
  0
TABLE
  2
VPORT
  5
8
330
0
100
AcDbSymbolTable
 70
     1
  0
VPORT
  5
29
330
8
100
AcDbSymbolTableRecord
100
AcDbViewportTableRecord
  2
*Active
 70
     0
 10
0.0
 20
0.0
 11
1.0
 21
1.0
 12
10.42990654205607
 22
4.5
 13
0.0
 23
0.0
 14
0.5
 24
0.5
 15
0.5
 25
0.5
 16
0.0
 26
0.0
 36
1.0
 17
0.0
 27
0.0
 37
0.0
 40
9.0
 41
1.972972972850329
 42
50.0
 43
0.0
 44
0.0
 50
0.0
 51
0.0
 71
     0
 72
   100
 73
     1
 74
     3
 75
     0
 76
     0
 77
     0
 78
     0
281
     0
 65
     1
110
0.0
120
0.0
130
0.0
111
1.0
121
0.0
131
0.0
112
0.0
122
1.0
132
0.0
 79
     0
146
0.0
  0
ENDTAB
  0
TABLE
  2
LTYPE
  5
5
330
0
100
AcDbSymbolTable
 70
     1
  0
LTYPE
  5
14
330
5
100
AcDbSymbolTableRecord
100
AcDbLinetypeTableRecord
  2
ByBlock
 70
     0
  3

 72
    65
 73
     0
 40
0.0
  0
LTYPE
  5
15
330
5
100
AcDbSymbolTableRecord
100
AcDbLinetypeTableRecord
  2
ByLayer
 70
     0
  3

 72
    65
 73
     0
 40
0.0
  0
LTYPE
  5
16
330
5
100
AcDbSymbolTableRecord
100
AcDbLinetypeTableRecord
  2
Continuous
 70
     0
  3
Solid line
 72
    65
 73
     0
 40
0.0
  0
ENDTAB
  0
TABLE
  2
LAYER
  5
2
330
0
100
AcDbSymbolTable
 70
     3
  0
LAYER
  5
10
330
2
100
AcDbSymbolTableRecord
100
AcDbLayerTableRecord
  2
0
 70
     0
 62
     7
  6
Continuous
370
    -3
390
F
  0
LAYER
  5
5E
330
2
100
AcDbSymbolTableRecord
100
AcDbLayerTableRecord
  2
met1
 70
     0
 62
   136
420
    32896
  6
Continuous
370
    -3
390
F
  0
LAYER
  5
77
330
2
100
AcDbSymbolTableRecord
100
AcDbLayerTableRecord
  2
text1
 70
     0
 62
   176
420
      128
  6
Continuous
370
    -3
390
F
  0
ENDTAB
  0
TABLE
  2
STYLE
  5
3
330
0
100
AcDbSymbolTable
 70
     1
  0
STYLE
  5
11
330
3
100
AcDbSymbolTableRecord
100
AcDbTextStyleTableRecord
  2
Standard
 70
     0
 40
0.0
 41
1.0
 50
0.0
 71
     0
 42
0.2
  3
txt
  4

  0
ENDTAB
  0
TABLE
  2
VIEW
  5
6
330
0
100
AcDbSymbolTable
 70
     0
  0
ENDTAB
  0
TABLE
  2
UCS
  5
7
330
0
100
AcDbSymbolTable
 70
     0
  0
ENDTAB
  0
TABLE
  2
APPID
  5
9
330
0
100
AcDbSymbolTable
 70
     1
  0
APPID
  5
12
330
9
100
AcDbSymbolTableRecord
100
AcDbRegAppTableRecord
  2
ACAD
 70
     0
  0
ENDTAB
  0
TABLE
  2
DIMSTYLE
  5
A
330
0
100
AcDbSymbolTable
 70
     1
100
AcDbDimStyleTable
  0
DIMSTYLE
105
27
330
A
100
AcDbSymbolTableRecord
100
AcDbDimStyleTableRecord
  2
Standard
 70
     0
340
11
  0
ENDTAB
  0
TABLE
  2
BLOCK_RECORD
  5
1
330
0
100
AcDbSymbolTable
 70
     1
  0
BLOCK_RECORD
  5
1F
330
1
100
AcDbSymbolTableRecord
100
AcDbBlockTableRecord
  2
*Model_Space
340
22
  0
BLOCK_RECORD
  5
1B
330
1
100
AcDbSymbolTableRecord
100
AcDbBlockTableRecord
  2
*Paper_Space
340
1E
  0
BLOCK_RECORD
  5
23
330
1
100
AcDbSymbolTableRecord
100
AcDbBlockTableRecord
  2
*Paper_Space0
340
26
  0
ENDTAB
  0
ENDSEC
  0
SECTION
  2
BLOCKS
  0
BLOCK
  5
20
330
1F
100
AcDbEntity
  8
0
100
AcDbBlockBegin
  2
*Model_Space
 70
     0
 10
0.0
 20
0.0
 30
0.0
  3
*Model_Space
  1

  0
ENDBLK
  5
21
330
1F
100
AcDbEntity
  8
0
100
AcDbBlockEnd
  0
BLOCK
  5
1C
330
1B
100
AcDbEntity
 67
     1
  8
0
100
AcDbBlockBegin
  2
*Paper_Space
 70
     0
 10
0.0
 20
0.0
 30
0.0
  3
*Paper_Space
  1

  0
ENDBLK
  5
1D
330
1B
100
AcDbEntity
 67
     1
  8
0
100
AcDbBlockEnd
  0
BLOCK
  5
24
330
23
100
AcDbEntity
  8
0
100
AcDbBlockBegin
  2
*Paper_Space0
 70
     0
 10
0.0
 20
0.0
 30
0.0
  3
*Paper_Space0
  1

  0
ENDBLK
  5
25
330
23
100
AcDbEntity
  8
0
100
AcDbBlockEnd
  0
ENDSEC
  0
SECTION
  2
ENTITIES
  0
LWPOLYLINE
  5
5D
330
1F
100
AcDbEntity
  8
met1
100
AcDbPolyline
 90
        4
 70
     1
 43
0.0
 10
348.9
 20
838.0
 10
348.9
 20
935.0
 10
445.9
 20
935.0
 10
445.9
 20
838.0
  0
LWPOLYLINE
  5
5F
330
1F
100
AcDbEntity
  8
met1
100
AcDbPolyline
 90
        4
 70
     1
 43
0.0
 10
948.9
 20
838.0
 10
948.9
 20
935.0
 10
1045.9
 20
935.0
 10
1045.9
 20
838.0
  0
LWPOLYLINE
  5
60
330
1F
100
AcDbEntity
  8
met1
100
AcDbPolyline
 90
        4
 70
     1
 43
0.0
 10
498.9
 20
838.0
 10
498.9
 20
935.0
 10
595.9
 20
935.0
 10
595.9
 20
838.0
  0
LWPOLYLINE
  5
61
330
1F
100
AcDbEntity
  8
met1
100
AcDbPolyline
 90
        4
 70
     1
 43
0.0
 10
648.9
 20
838.0
 10
648.9
 20
935.0
 10
745.9
 20
935.0
 10
745.9
 20
838.0
  0
LWPOLYLINE
  5
62
330
1F
100
AcDbEntity
  8
met1
100
AcDbPolyline
 90
        4
 70
     1
 43
0.0
 10
798.9
 20
838.0
 10
798.9
 20
935.0
 10
895.9
 20
935.0
 10
895.9
 20
838.0
  0
LWPOLYLINE
  5
63
330
1F
100
AcDbEntity
  8
met1
100
AcDbPolyline
 90
        6
 70
     1
 43
0.0
 10
135.0
 20
329.8
 10
165.0
 20
317.3
 10
165.0
 20
282.3
 10
135.0
 20
269.8
 10
65.0
 20
269.8
 10
65.0
 20
329.8
  0
LWPOLYLINE
  5
64
330
1F
100
AcDbEntity
  8
met1
100
AcDbPolyline
 90
        6
 70
     1
 43
0.0
 10
1335.0
 20
282.3
 10
1335.0
 20
317.3
 10
1365.0
 20
329.8
 10
1435.0
 20
329.8
 10
1435.0
 20
269.8
 10
1365.0
 20
269.8
  0
LWPOLYLINE
  5
65
330
1F
100
AcDbEntity
  8
met1
100
AcDbPolyline
 90
       74
 70
     1
 43
0.0
 10
1423.8
 20
882.5
 10
1424.2
 20
879.3000000000001
 10
1424.2
 20
873.7
 10
1422.2
 20
867.3000000000001
 10
1419.0
 20
861.3000000000001
 10
1414.6
 20
855.7
 10
1409.0
 20
850.5
 10
1402.2
 20
845.3000000000001
 10
1394.2
 20
841.3000000000001
 10
1385.4
 20
837.3000000000001
 10
1375.8
 20
834.1
 10
1365.4
 20
831.7
 10
1354.6
 20
830.1
 10
1343.0
 20
828.9
 10
1333.0
 20
828.9
 10
1326.6
 20
829.3000000000001
 10
1320.2
 20
829.7
 10
1313.8
 20
830.1
 10
1307.8
 20
831.3000000000001
 10
1301.8
 20
832.5
 10
1295.8
 20
833.7
 10
1290.2
 20
835.3000000000001
 10
1285.0
 20
836.9
 10
1279.8
 20
838.9
 10
1275.0
 20
840.9
 10
1270.2
 20
843.3000000000001
 10
1266.2
 20
845.3000000000001
 10
1270.2
 20
843.7
 10
1273.8
 20
842.1
 10
1277.8
 20
840.5
 10
1282.2
 20
838.9
 10
1286.2
 20
837.7
 10
1290.6
 20
836.9
 10
1295.4
 20
835.7
 10
1299.8
 20
834.9
 10
1304.6
 20
834.5
 10
1309.8
 20
834.1
 10
1315.0
 20
833.7
 10
1330.2
 20
833.7
 10
1341.8
 20
834.9
 10
1352.6
 20
836.5
 10
1363.0
 20
838.9
 10
1372.6
 20
842.1
 10
1381.4
 20
846.1
 10
1389.4
 20
850.1
 10
1396.2
 20
854.9
 10
1401.8
 20
860.5
 10
1406.2
 20
866.1
 10
1409.4
 20
872.1
 10
1411.4
 20
878.5
 10
1411.8
 20
883.7
 10
1411.4
 20
886.9
 10
1411.0
 20
889.7
 10
1410.6
 20
892.5
 10
1409.8
 20
895.3000000000001
 10
1408.6
 20
898.1
 10
1407.0
 20
900.9
 10
1405.4
 20
903.3000000000001
 10
1403.4
 20
905.7
 10
1401.4
 20
908.1
 10
1398.6
 20
910.5
 10
1395.8
 20
912.5
 10
1392.6
 20
914.9
 10
1396.6
 20
912.5
 10
1401.0
 20
910.1
 10
1404.6
 20
907.7
 10
1408.2
 20
904.9
 10
1411.8
 20
902.1
 10
1414.6
 20
898.9
 10
1417.4
 20
895.7
 10
1419.8
 20
892.9
 10
1421.4
 20
889.3000000000001
 10
1423.0
 20
886.1
 10
1423.8
 20
882.5
  0
LWPOLYLINE
  5
66
330
1F
100
AcDbEntity
  8
met1
100
AcDbPolyline
 90
       26
 70
     1
 43
0.0
 10
1400.0
 20
152.3
 10
1400.0
 20
160.6
 10
1377.5
 20
195.8
 10
1369.1
 20
195.8
 10
1364.5
 20
196.5
 10
1359.6
 20
199.0
 10
1355.7
 20
202.9
 10
1353.1
 20
207.9
 10
1352.3
 20
213.3
 10
1353.2
 20
218.7
 10
1355.7
 20
223.7
 10
1359.6
 20
227.6
 10
1364.5
 20
230.1
 10
1369.1
 20
230.8
 10
1435.0
 20
230.8
 10
1435.0
 20
152.3
 10
1434.3
 20
147.7
 10
1431.8
 20
142.8
 10
1427.9
 20
138.9
 10
1422.9
 20
136.3
 10
1417.5
 20
135.5
 10
1412.1
 20
136.4
 10
1407.1
 20
138.9
 10
1403.2
 20
142.8
 10
1400.7
 20
147.7
 10
1400.0
 20
152.3
  0
LWPOLYLINE
  5
67
330
1F
100
AcDbEntity
  8
met1
100
AcDbPolyline
 90
       51
 70
     1
 43
0.0
 10
1322.4
 20
851.1
 10
1320.6
 20
851.3000000000001
 10
1317.4
 20
851.7
 10
1311.0
 20
852.9
 10
1303.8
 20
854.5
 10
1297.0
 20
856.9
 10
1290.6
 20
859.7
 10
1285.0
 20
862.9
 10
1279.8
 20
866.5
 10
1275.0
 20
870.1
 10
1271.4
 20
874.1
 10
1268.2
 20
878.5
 10
1265.8
 20
882.5
 10
1264.6
 20
887.3000000000001
 10
1264.2
 20
891.7
 10
1264.6
 20
895.3000000000001
 10
1265.4
 20
899.3000000000001
 10
1266.2
 20
901.3000000000001
 10
1267.0
 20
902.9
 10
1270.6
 20
907.7
 10
1272.2
 20
908.9
 10
1274.2
 20
910.1
 10
1275.8
 20
911.3000000000001
 10
1280.6
 20
913.7
 10
1277.4
 20
912.5
 10
1271.8
 20
910.1
 10
1269.0
 20
908.5
 10
1266.6
 20
906.5
 10
1264.2
 20
904.9
 10
1260.2
 20
900.9
 10
1258.6
 20
898.9
 10
1257.4
 20
896.5
 10
1256.6
 20
894.5
 10
1255.8
 20
892.1
 10
1255.4
 20
888.1
 10
1255.8
 20
883.7
 10
1257.4
 20
879.3000000000001
 10
1259.4
 20
874.9
 10
1262.6
 20
870.5
 10
1266.2
 20
866.5
 10
1271.0
 20
862.9
 10
1276.2
 20
859.3000000000001
 10
1281.8
 20
856.1
 10
1288.2
 20
853.7
 10
1295.0
 20
851.3000000000001
 10
1302.2
 20
849.3000000000001
 10
1308.6
 20
848.1
 10
1313.0
 20
847.7
 10
1317.0
 20
847.3000000000001
 10
1322.4
 20
847.3000000000001
 10
1322.4
 20
851.1
  0
LWPOLYLINE
  5
68
330
1F
100
AcDbEntity
  8
met1
100
AcDbPolyline
 90
       95
 70
     1
 43
0.0
 10
1322.4
 20
912.3000000000001
 10
1320.2
 20
914.5
 10
1319.0
 20
915.3000000000001
 10
1317.4
 20
916.5
 10
1315.4
 20
917.3000000000001
 10
1313.8
 20
918.1
 10
1312.2
 20
918.5
 10
1308.2
 20
919.3000000000001
 10
1300.2
 20
919.3000000000001
 10
1296.2
 20
918.5
 10
1293.8
 20
917.7
 10
1294.2
 20
917.7
 10
1295.8
 20
918.1
 10
1297.8
 20
918.1
 10
1299.4
 20
918.5
 10
1301.0
 20
918.5
 10
1302.6
 20
918.1
 10
1304.2
 20
918.1
 10
1305.8
 20
917.7
 10
1307.0
 20
917.3000000000001
 10
1308.6
 20
916.5
 10
1309.8
 20
916.1
 10
1311.4
 20
915.3000000000001
 10
1313.8
 20
913.7
 10
1317.4
 20
910.1
 10
1319.0
 20
907.7
 10
1319.8
 20
906.1
 10
1320.6
 20
904.9
 10
1321.4
 20
903.3000000000001
 10
1321.4
 20
902.1
 10
1314.2
 20
901.3000000000001
 10
1311.0
 20
900.5
 10
1307.4
 20
899.7
 10
1304.2
 20
898.9
 10
1301.0
 20
897.7
 10
1297.8
 20
896.9
 10
1295.0
 20
895.7
 10
1292.2
 20
894.1
 10
1289.4
 20
892.9
 10
1287.0
 20
891.3000000000001
 10
1289.0
 20
892.1
 10
1291.4
 20
893.3000000000001
 10
1293.8
 20
894.1
 10
1295.8
 20
894.9
 10
1298.2
 20
895.3000000000001
 10
1301.0
 20
896.1
 10
1303.4
 20
896.5
 10
1309.0
 20
897.3000000000001
 10
1311.8
 20
897.3000000000001
 10
1314.6
 20
897.7
 10
1320.2
 20
898.1
 10
1322.2
 20
898.1
 10
1321.8
 20
897.3000000000001
 10
1320.6
 20
892.1
 10
1320.2
 20
886.9
 10
1320.2
 20
881.3000000000001
 10
1320.6
 20
878.1
 10
1318.2
 20
879.3000000000001
 10
1316.2
 20
879.7
 10
1314.6
 20
880.5
 10
1312.6
 20
880.5
 10
1311.0
 20
880.9
 10
1309.0
 20
880.9
 10
1307.0
 20
880.5
 10
1305.4
 20
880.5
 10
1303.4
 20
879.7
 10
1301.8
 20
879.3000000000001
 10
1299.8
 20
878.5
 10
1298.2
 20
877.7
 10
1296.2
 20
876.5
 10
1294.6
 20
875.7
 10
1292.6
 20
874.5
 10
1289.8
 20
871.7
 10
1291.0
 20
872.5
 10
1292.6
 20
873.7
 10
1294.2
 20
874.5
 10
1295.4
 20
875.3000000000001
 10
1298.6
 20
876.1
 10
1299.8
 20
876.5
 10
1301.4
 20
876.9
 10
1303.0
 20
876.9
 10
1304.6
 20
877.3000000000001
 10
1306.2
 20
876.9
 10
1307.4
 20
876.9
 10
1309.0
 20
876.5
 10
1310.6
 20
876.5
 10
1312.2
 20
876.1
 10
1313.4
 20
875.7
 10
1315.8
 20
874.1
 10
1317.0
 20
873.7
 10
1318.2
 20
872.5
 10
1320.6
 20
870.9
 10
1321.4
 20
869.7
 10
1322.4
 20
868.7
 10
1322.4
 20
912.3000000000001
  0
LWPOLYLINE
  5
69
330
1F
100
AcDbEntity
  8
met1
100
AcDbPolyline
 90
      142
 70
     1
 43
0.0
 10
1389.4
 20
907.3000000000001
 10
1387.4
 20
907.7
 10
1376.2
 20
907.7
 10
1371.4
 20
906.9
 10
1368.6
 20
906.1
 10
1366.2
 20
905.7
 10
1363.8
 20
904.9
 10
1361.4
 20
903.7
 10
1359.0
 20
902.9
 10
1357.0
 20
901.7
 10
1354.2
 20
900.1
 10
1351.8
 20
898.5
 10
1350.2
 20
898.9
 10
1345.0
 20
900.5
 10
1339.0
 20
901.7
 10
1333.4
 20
902.1
 10
1333.8
 20
904.1
 10
1337.8
 20
912.9
 10
1340.2
 20
916.1
 10
1343.8
 20
919.7
 10
1345.4
 20
920.9
 10
1346.6
 20
921.7
 10
1348.2
 20
922.9
 10
1349.8
 20
923.7
 10
1353.8
 20
925.3000000000001
 10
1355.8
 20
925.7
 10
1357.8
 20
926.5
 10
1359.8
 20
926.5
 10
1362.2
 20
926.9
 10
1364.6
 20
926.9
 10
1361.8
 20
927.3000000000001
 10
1354.2
 20
927.3000000000001
 10
1351.8
 20
926.9
 10
1344.6
 20
924.5
 10
1339.8
 20
922.1
 10
1337.4
 20
920.5
 10
1335.4
 20
918.9
 10
1331.8
 20
915.7
 10
1328.6
 20
911.3000000000001
 10
1326.2
 20
907.7
 10
1325.4
 20
908.5
 10
1324.6
 20
910.1
 10
1322.4
 20
912.3000000000001
 10
1322.4
 20
868.7
 10
1322.6
 20
868.5
 10
1323.4
 20
867.3000000000001
 10
1323.8
 20
866.9
 10
1324.2
 20
865.7
 10
1326.6
 20
860.9
 10
1329.4
 20
857.3000000000001
 10
1331.0
 20
854.9
 10
1335.0
 20
850.9
 10
1335.8
 20
850.5
 10
1327.4
 20
850.5
 10
1324.2
 20
850.9
 10
1322.4
 20
851.1
 10
1322.4
 20
847.3000000000001
 10
1325.0
 20
847.3000000000001
 10
1337.0
 20
848.5
 10
1337.8
 20
848.9
 10
1339.4
 20
847.7
 10
1341.4
 20
846.1
 10
1343.8
 20
845.3000000000001
 10
1346.2
 20
844.1
 10
1351.0
 20
842.5
 10
1353.8
 20
842.1
 10
1356.2
 20
842.1
 10
1352.2
 20
842.9
 10
1348.2
 20
844.5
 10
1346.6
 20
845.3000000000001
 10
1345.0
 20
846.5
 10
1342.6
 20
848.9
 10
1342.2
 20
849.7
 10
1344.2
 20
850.1
 10
1347.4
 20
851.3000000000001
 10
1350.6
 20
852.1
 10
1353.4
 20
853.3000000000001
 10
1351.0
 20
852.5
 10
1348.2
 20
851.7
 10
1342.6
 20
850.9
 10
1341.8
 20
850.9
 10
1341.4
 20
851.3000000000001
 10
1340.2
 20
854.5
 10
1339.8
 20
857.7
 10
1339.4
 20
861.3000000000001
 10
1339.8
 20
865.3000000000001
 10
1340.6
 20
869.3000000000001
 10
1341.8
 20
873.3000000000001
 10
1343.4
 20
877.3000000000001
 10
1345.4
 20
881.3000000000001
 10
1347.8
 20
885.3000000000001
 10
1350.2
 20
888.9
 10
1352.2
 20
891.3000000000001
 10
1353.0
 20
890.5
 10
1357.0
 20
888.1
 10
1360.2
 20
885.3000000000001
 10
1363.0
 20
882.1
 10
1365.0
 20
878.9
 10
1366.2
 20
875.3000000000001
 10
1366.6
 20
872.5
 10
1366.6
 20
870.9
 10
1366.2
 20
868.9
 10
1366.2
 20
867.3000000000001
 10
1365.8
 20
866.1
 10
1364.2
 20
862.9
 10
1363.4
 20
861.7
 10
1362.6
 20
860.1
 10
1361.4
 20
858.9
 10
1359.8
 20
857.7
 10
1358.2
 20
856.1
 10
1356.6
 20
854.9
 10
1359.0
 20
856.5
 10
1361.0
 20
857.7
 10
1363.0
 20
859.7
 10
1365.0
 20
861.3000000000001
 10
1366.6
 20
862.9
 10
1369.8
 20
866.9
 10
1371.0
 20
868.5
 10
1372.6
 20
872.5
 10
1373.0
 20
874.5
 10
1373.0
 20
876.5
 10
1372.6
 20
879.7
 10
1371.4
 20
883.3000000000001
 10
1369.4
 20
886.5
 10
1367.0
 20
889.7
 10
1363.4
 20
892.5
 10
1359.8
 20
894.9
 10
1357.4
 20
896.1
 10
1360.6
 20
898.5
 10
1363.0
 20
900.1
 10
1365.0
 20
901.3000000000001
 10
1367.0
 20
902.1
 10
1369.0
 20
903.3000000000001
 10
1370.6
 20
904.1
 10
1372.6
 20
904.5
 10
1374.6
 20
905.3000000000001
 10
1376.6
 20
905.7
 10
1378.6
 20
906.5
 10
1380.2
 20
906.9
 10
1382.2
 20
906.9
 10
1384.2
 20
907.3000000000001
 10
1389.4
 20
907.3000000000001
  0
LWPOLYLINE
  5
6A
330
1F
100
AcDbEntity
  8
met1
100
AcDbPolyline
 90
       26
 70
     1
 43
0.0
 10
1352.3
 20
386.3
 10
1353.1
 20
391.7
 10
1355.7
 20
396.7
 10
1359.6
 20
400.6
 10
1364.5
 20
403.1
 10
1369.1
 20
403.8
 10
1377.5
 20
403.8
 10
1400.0
 20
439.0
 10
1400.0
 20
447.3
 10
1400.7
 20
451.9
 10
1403.2
 20
456.8
 10
1407.1
 20
460.7
 10
1412.1
 20
463.2
 10
1417.5
 20
464.1
 10
1422.9
 20
463.3
 10
1427.9
 20
460.7
 10
1431.8
 20
456.8
 10
1434.3
 20
451.9
 10
1435.0
 20
447.3
 10
1435.0
 20
368.8
 10
1369.1
 20
368.8
 10
1364.5
 20
369.5
 10
1359.6
 20
372.0
 10
1355.7
 20
375.9
 10
1353.2
 20
380.9
 10
1352.3
 20
386.3
  0
LWPOLYLINE
  5
6B
330
1F
100
AcDbEntity
  8
met1
100
AcDbPolyline
 90
        8
 70
     1
 43
0.0
 10
1297.016
 20
112.1
 10
1325.584
 20
112.1
 10
1325.584
 20
106.384
 10
1308.444
 20
72.10000000000001
 10
1302.728
 20
72.10000000000001
 10
1319.872
 20
106.384
 10
1297.016
 20
106.384
 10
1297.016
 20
112.1
  0
LWPOLYLINE
  5
6C
330
1F
100
AcDbEntity
  8
met1
100
AcDbPolyline
 90
       11
 70
     1
 43
0.0
 10
1274.156
 20
77.816
 10
1279.872
 20
77.816
 10
1279.872
 20
72.10000000000001
 10
1262.728
 20
72.10000000000001
 10
1262.728
 20
77.816
 10
1268.444
 20
77.816
 10
1268.444
 20
106.384
 10
1262.728
 20
106.384
 10
1268.444
 20
112.1
 10
1274.156
 20
112.1
 10
1274.156
 20
77.816
  0
LWPOLYLINE
  5
6D
330
1F
100
AcDbEntity
  8
met1
100
AcDbPolyline
 90
       11
 70
     1
 43
0.0
 10
1239.872
 20
72.10000000000001
 10
1239.872
 20
89.244
 10
1222.728
 20
89.244
 10
1222.728
 20
72.10000000000001
 10
1217.016
 20
72.10000000000001
 10
1217.016
 20
106.384
 10
1222.728
 20
112.1
 10
1239.872
 20
112.1
 10
1245.584
 20
106.384
 10
1245.584
 20
72.10000000000001
 10
1239.872
 20
72.10000000000001
  0
LWPOLYLINE
  5
6E
330
1F
100
AcDbEntity
  8
met1
100
AcDbPolyline
 90
        9
 70
     1
 43
0.0
 10
1179.872
 20
77.816
 10
1179.872
 20
106.384
 10
1185.584
 20
112.1
 10
1197.016
 20
112.1
 10
1202.728
 20
106.384
 10
1202.728
 20
77.816
 10
1197.016
 20
72.10000000000001
 10
1185.584
 20
72.10000000000001
 10
1179.872
 20
77.816
  0
LWPOLYLINE
  5
6F
330
1F
100
AcDbEntity
  8
met1
100
AcDbPolyline
 90
       15
 70
     1
 43
0.0
 10
1137.016
 20
77.816
 10
1137.016
 20
86.384
 10
1142.728
 20
92.10000000000001
 10
1137.016
 20
97.816
 10
1137.016
 20
106.384
 10
1142.728
 20
112.1
 10
1159.872
 20
112.1
 10
1165.584
 20
106.384
 10
1165.584
 20
97.816
 10
1159.872
 20
92.10000000000001
 10
1165.584
 20
86.384
 10
1165.584
 20
77.816
 10
1159.872
 20
72.10000000000001
 10
1142.728
 20
72.10000000000001
 10
1137.016
 20
77.816
  0
LWPOLYLINE
  5
70
330
1F
100
AcDbEntity
  8
met1
100
AcDbPolyline
 90
        9
 70
     1
 43
0.0
 10
1099.872
 20
77.816
 10
1099.872
 20
106.384
 10
1105.584
 20
112.1
 10
1117.016
 20
112.1
 10
1122.728
 20
106.384
 10
1122.728
 20
77.816
 10
1117.016
 20
72.10000000000001
 10
1105.584
 20
72.10000000000001
 10
1099.872
 20
77.816
  0
LWPOLYLINE
  5
71
330
1F
100
AcDbEntity
  8
met1
100
AcDbPolyline
 90
       11
 70
     1
 43
0.0
 10
1057.016
 20
72.10000000000001
 10
1057.016
 20
80.672
 10
1079.872
 20
106.384
 10
1057.016
 20
106.384
 10
1057.016
 20
112.1
 10
1085.584
 20
112.1
 10
1085.584
 20
103.528
 10
1062.728
 20
77.816
 10
1085.584
 20
77.816
 10
1085.584
 20
72.10000000000001
 10
1057.016
 20
72.10000000000001
  0
LWPOLYLINE
  5
72
330
1F
100
AcDbEntity
  8
met1
100
AcDbPolyline
 90
       11
 70
     1
 43
0.0
 10
1017.016
 20
72.10000000000001
 10
1017.016
 20
112.1
 10
1025.584
 20
112.1
 10
1039.872
 20
80.672
 10
1039.872
 20
112.1
 10
1045.584
 20
112.1
 10
1045.584
 20
72.10000000000001
 10
1037.016
 20
72.10000000000001
 10
1022.728
 20
103.528
 10
1022.728
 20
72.10000000000001
 10
1017.016
 20
72.10000000000001
  0
LWPOLYLINE
  5
73
330
1F
100
AcDbEntity
  8
met1
100
AcDbPolyline
 90
       11
 70
     1
 43
0.0
 10
999.8720000000001
 20
72.10000000000001
 10
999.8720000000001
 20
89.244
 10
982.7280000000001
 20
89.244
 10
982.7280000000001
 20
72.10000000000001
 10
977.0160000000001
 20
72.10000000000001
 10
977.0160000000001
 20
106.384
 10
982.7280000000001
 20
112.1
 10
999.8720000000001
 20
112.1
 10
1005.584
 20
106.384
 10
1005.584
 20
72.10000000000001
 10
999.8720000000001
 20
72.10000000000001
  0
LWPOLYLINE
  5
74
330
1F
100
AcDbEntity
  8
met1
100
AcDbPolyline
 90
       26
 70
     1
 43
0.0
 10
146.9
 20
391.7
 10
147.7
 20
386.3
 10
146.8
 20
380.9
 10
144.3
 20
375.9
 10
140.4
 20
372.0
 10
135.5
 20
369.5
 10
130.9
 20
368.8
 10
65.0
 20
368.8
 10
65.0
 20
447.3
 10
65.7
 20
451.9
 10
68.2
 20
456.8
 10
72.10000000000001
 20
460.7
 10
77.10000000000001
 20
463.3
 10
82.5
 20
464.1
 10
87.9
 20
463.2
 10
92.9
 20
460.7
 10
96.8
 20
456.8
 10
99.3
 20
451.9
 10
100.0
 20
447.3
 10
100.0
 20
439.0
 10
122.5
 20
403.8
 10
130.9
 20
403.8
 10
135.5
 20
403.1
 10
140.4
 20
400.6
 10
144.3
 20
396.7
 10
146.9
 20
391.7
  0
LWPOLYLINE
  5
75
330
1F
100
AcDbEntity
  8
met1
100
AcDbPolyline
 90
       26
 70
     1
 43
0.0
 10
65.0
 20
152.3
 10
65.0
 20
230.8
 10
130.9
 20
230.8
 10
135.5
 20
230.1
 10
140.4
 20
227.6
 10
144.3
 20
223.7
 10
146.8
 20
218.7
 10
147.7
 20
213.3
 10
146.9
 20
207.9
 10
144.3
 20
202.9
 10
140.4
 20
199.0
 10
135.5
 20
196.5
 10
130.9
 20
195.8
 10
122.5
 20
195.8
 10
100.0
 20
160.6
 10
100.0
 20
152.3
 10
99.3
 20
147.7
 10
96.8
 20
142.8
 10
92.9
 20
138.9
 10
87.9
 20
136.4
 10
82.5
 20
135.5
 10
77.10000000000001
 20
136.3
 10
72.10000000000001
 20
138.9
 10
68.2
 20
142.8
 10
65.7
 20
147.7
 10
65.0
 20
152.3
  0
MTEXT
  5
76
330
1F
100
AcDbEntity
  8
text1
100
AcDbMText
 10
323.0
 20
1001.0
 30
0.0
 40
50.0
 41
0.0
 71
     7
 72
     1
  1
Vg1
 73
     1
 44
1.0
  0
LWPOLYLINE
  5
78
330
1F
100
AcDbEntity
  8
text1
100
AcDbPolyline
 90
        4
 70
     1
 43
0.0
 10
0.0
 20
0.0
 10
0.0
 20
1000.0
 10
1500.0
 20
1000.0
 10
1500.0
 20
0.0
  0
LWPOLYLINE
  5
79
330
1F
100
AcDbEntity
  8
text1
100
AcDbPolyline
 90
        3
 70
     0
 43
0.0
 10
1490.0
 20
1000.0
 10
1500.0
 20
1000.0
 10
1500.0
 20
990.0
  0
MTEXT
  5
7A
330
1F
100
AcDbEntity
  8
text1
100
AcDbMText
 10
623.0
 20
1001.0
 30
0.0
 40
50.0
 41
0.0
 71
     7
 72
     1
  1
GND
 73
     1
 44
1.0
  0
MTEXT
  5
7B
330
1F
100
AcDbEntity
  8
text1
100
AcDbMText
 10
473.0
 20
1001.0
 30
0.0
 40
50.0
 41
0.0
 71
     7
 72
     1
  1
Vg2
 73
     1
 44
1.0
  0
MTEXT
  5
7C
330
1F
100
AcDbEntity
  8
text1
100
AcDbMText
 10
819.0
 20
1003.0
 30
0.0
 40
50.0
 41
0.0
 71
     7
 72
     1
  1
-
 73
     1
 44
1.0
  0
MTEXT
  5
7D
330
1F
100
AcDbEntity
  8
text1
100
AcDbMText
 10
944.0
 20
1004.0
 30
0.0
 40
50.0
 41
0.0
 71
     7
 72
     1
  1
Vd
 73
     1
 44
1.0
  0
MTEXT
  5
7E
330
1F
100
AcDbEntity
  8
text1
100
AcDbMText
 10
-111.0
 20
266.0
 30
0.0
 40
50.0
 41
0.0
 71
     7
 72
     1
  1
IN
 73
     1
 44
1.0
  0
MTEXT
  5
7F
330
1F
100
AcDbEntity
  8
text1
100
AcDbMText
 10
1519.0
 20
266.0
 30
0.0
 40
50.0
 41
0.0
 71
     7
 72
     1
  1
IN
 73
     1
 44
1.0
  0
ENDSEC
  0
SECTION
  2
OBJECTS
  0
DICTIONARY
  5
C
330
0
100
AcDbDictionary
281
     1
  3
ACAD_GROUP
350
D
  3
ACAD_LAYOUT
350
1A
  3
ACAD_MLEADERSTYLE
350
81
  3
ACAD_MLINESTYLE
350
17
  3
ACAD_PLOTSETTINGS
350
19
  3
ACAD_PLOTSTYLENAME
350
E
  3
ACAD_SCALELIST
350
3B
  3
ACAD_TABLESTYLE
350
80
  3
ACAD_VISUALSTYLE
350
2A
  0
DICTIONARY
  5
D
102
{ACAD_REACTORS
330
C
102
}
330
C
100
AcDbDictionary
281
     1
  0
DICTIONARY
  5
1A
102
{ACAD_REACTORS
330
C
102
}
330
C
100
AcDbDictionary
281
     1
  3
Layout1
350
1E
  3
Layout2
350
26
  3
Model
350
22
  0
DICTIONARY
  5
81
102
{ACAD_REACTORS
330
C
102
}
330
C
100
AcDbDictionary
281
     1
  0
DICTIONARY
  5
17
102
{ACAD_REACTORS
330
C
102
}
330
C
100
AcDbDictionary
281
     1
  3
Standard
350
18
  0
DICTIONARY
  5
19
102
{ACAD_REACTORS
330
C
102
}
330
C
100
AcDbDictionary
281
     1
  0
ACDBDICTIONARYWDFLT
  5
E
102
{ACAD_REACTORS
330
C
102
}
330
C
100
AcDbDictionary
281
     1
  3
Normal
350
F
100
AcDbDictionaryWithDefault
340
F
  0
DICTIONARY
  5
3B
102
{ACAD_REACTORS
330
C
102
}
330
C
100
AcDbDictionary
281
     1
  3
A0
350
3C
  3
A1
350
3D
  3
A2
350
3E
  3
A3
350
3F
  3
A4
350
40
  3
A5
350
41
  3
A6
350
42
  3
A7
350
43
  3
A8
350
44
  3
A9
350
45
  3
B0
350
46
  3
B1
350
47
  3
B2
350
48
  3
B3
350
49
  3
B4
350
4A
  3
B5
350
4B
  3
B6
350
4C
  3
B7
350
4D
  3
B8
350
4E
  3
B9
350
4F
  3
C0
350
50
  3
C1
350
51
  3
C2
350
52
  3
C3
350
53
  3
C4
350
54
  3
C5
350
55
  3
C6
350
56
  3
C7
350
57
  3
C8
350
58
  3
C9
350
59
  3
D0
350
5A
  3
D1
350
5B
  3
D2
350
5C
  0
DICTIONARY
  5
80
102
{ACAD_REACTORS
330
C
102
}
330
C
100
AcDbDictionary
281
     1
  0
DICTIONARY
  5
2A
102
{ACAD_REACTORS
330
C
102
}
330
C
100
AcDbDictionary
281
     1
  3
2dWireframe
350
2F
  3
3D Hidden
350
31
  3
3dWireframe
350
30
  3
Basic
350
32
  3
Brighten
350
36
  3
ColorChange
350
3A
  3
Conceptual
350
34
  3
Dim
350
35
  3
Facepattern
350
39
  3
Flat
350
2B
  3
FlatWithEdges
350
2C
  3
Gouraud
350
2D
  3
GouraudWithEdges
350
2E
  3
Linepattern
350
38
  3
Realistic
350
33
  3
Thicken
350
37
  0
LAYOUT
  5
1E
102
{ACAD_REACTORS
330
1A
102
}
330
1A
100
AcDbPlotSettings
  1

  2
none_device
  4

  6

 40
0.0
 41
0.0
 42
0.0
 43
0.0
 44
0.0
 45
0.0
 46
0.0
 47
0.0
 48
0.0
 49
0.0
140
0.0
141
0.0
142
1.0
143
1.0
 70
   688
 72
     0
 73
     0
 74
     5
  7

 75
    16
 76
     0
 77
     2
 78
   300
147
1.0
148
0.0
149
0.0
100
AcDbLayout
  1
Layout1
 70
     1
 71
     1
 10
0.0
 20
0.0
 11
12.0
 21
9.0
 12
0.0
 22
0.0
 32
0.0
 14
1.000000000000000E+20
 24
1.000000000000000E+20
 34
1.000000000000000E+20
 15
-1.000000000000000E+20
 25
-1.000000000000000E+20
 35
-1.000000000000000E+20
146
0.0
 13
0.0
 23
0.0
 33
0.0
 16
1.0
 26
0.0
 36
0.0
 17
0.0
 27
1.0
 37
0.0
 76
     0
330
1B
  0
LAYOUT
  5
26
102
{ACAD_REACTORS
330
1A
102
}
330
1A
100
AcDbPlotSettings
  1

  2
none_device
  4

  6

 40
0.0
 41
0.0
 42
0.0
 43
0.0
 44
0.0
 45
0.0
 46
0.0
 47
0.0
 48
0.0
 49
0.0
140
0.0
141
0.0
142
1.0
143
1.0
 70
   688
 72
     0
 73
     0
 74
     5
  7

 75
    16
 76
     0
 77
     2
 78
   300
147
1.0
148
0.0
149
0.0
100
AcDbLayout
  1
Layout2
 70
     1
 71
     2
 10
0.0
 20
0.0
 11
0.0
 21
0.0
 12
0.0
 22
0.0
 32
0.0
 14
0.0
 24
0.0
 34
0.0
 15
0.0
 25
0.0
 35
0.0
146
0.0
 13
0.0
 23
0.0
 33
0.0
 16
1.0
 26
0.0
 36
0.0
 17
0.0
 27
1.0
 37
0.0
 76
     0
330
23
  0
LAYOUT
  5
22
102
{ACAD_REACTORS
330
1A
102
}
330
1A
100
AcDbPlotSettings
  1

  2
none_device
  4

  6

 40
0.0
 41
0.0
 42
0.0
 43
0.0
 44
0.0
 45
0.0
 46
0.0
 47
0.0
 48
0.0
 49
0.0
140
0.0
141
0.0
142
1.0
143
1.0
 70
  1712
 72
     0
 73
     0
 74
     0
  7

 75
     0
 76
     0
 77
     2
 78
   300
147
1.0
148
0.0
149
0.0
100
AcDbLayout
  1
Model
 70
     1
 71
     0
 10
0.0
 20
0.0
 11
12.0
 21
9.0
 12
0.0
 22
0.0
 32
0.0
 14
1.000000000000000E+20
 24
1.000000000000000E+20
 34
1.000000000000000E+20
 15
-1.000000000000000E+20
 25
-1.000000000000000E+20
 35
-1.000000000000000E+20
146
0.0
 13
0.0
 23
0.0
 33
0.0
 16
1.0
 26
0.0
 36
0.0
 17
0.0
 27
1.0
 37
0.0
 76
     0
330
1F
331
29
  0
MLINESTYLE
  5
18
102
{ACAD_REACTORS
330
17
102
}
330
17
100
AcDbMlineStyle
  2
Standard
 70
     0
  3

 62
   256
 51
90.0
 52
90.0
 71
     2
 49
0.5
 62
   256
  6
BYLAYER
 49
-0.5
 62
   256
  6
BYLAYER
  0
ACDBPLACEHOLDER
  5
F
102
{ACAD_REACTORS
330
E
102
}
330
E
  0
SCALE
  5
3C
102
{ACAD_REACTORS
330
3B
102
}
330
3B
100
AcDbScale
 70
     0
300
1:1
140
1.0
141
1.0
290
     1
  0
SCALE
  5
3D
102
{ACAD_REACTORS
330
3B
102
}
330
3B
100
AcDbScale
 70
     0
300
1:2
140
1.0
141
2.0
290
     0
  0
SCALE
  5
3E
102
{ACAD_REACTORS
330
3B
102
}
330
3B
100
AcDbScale
 70
     0
300
1:4
140
1.0
141
4.0
290
     0
  0
SCALE
  5
3F
102
{ACAD_REACTORS
330
3B
102
}
330
3B
100
AcDbScale
 70
     0
300
1:5
140
1.0
141
5.0
290
     0
  0
SCALE
  5
40
102
{ACAD_REACTORS
330
3B
102
}
330
3B
100
AcDbScale
 70
     0
300
1:8
140
1.0
141
8.0
290
     0
  0
SCALE
  5
41
102
{ACAD_REACTORS
330
3B
102
}
330
3B
100
AcDbScale
 70
     0
300
1:10
140
1.0
141
10.0
290
     0
  0
SCALE
  5
42
102
{ACAD_REACTORS
330
3B
102
}
330
3B
100
AcDbScale
 70
     0
300
1:16
140
1.0
141
16.0
290
     0
  0
SCALE
  5
43
102
{ACAD_REACTORS
330
3B
102
}
330
3B
100
AcDbScale
 70
     0
300
1:20
140
1.0
141
20.0
290
     0
  0
SCALE
  5
44
102
{ACAD_REACTORS
330
3B
102
}
330
3B
100
AcDbScale
 70
     0
300
1:30
140
1.0
141
30.0
290
     0
  0
SCALE
  5
45
102
{ACAD_REACTORS
330
3B
102
}
330
3B
100
AcDbScale
 70
     0
300
1:40
140
1.0
141
40.0
290
     0
  0
SCALE
  5
46
102
{ACAD_REACTORS
330
3B
102
}
330
3B
100
AcDbScale
 70
     0
300
1:50
140
1.0
141
50.0
290
     0
  0
SCALE
  5
47
102
{ACAD_REACTORS
330
3B
102
}
330
3B
100
AcDbScale
 70
     0
300
1:100
140
1.0
141
100.0
290
     0
  0
SCALE
  5
48
102
{ACAD_REACTORS
330
3B
102
}
330
3B
100
AcDbScale
 70
     0
300
2:1
140
2.0
141
1.0
290
     0
  0
SCALE
  5
49
102
{ACAD_REACTORS
330
3B
102
}
330
3B
100
AcDbScale
 70
     0
300
4:1
140
4.0
141
1.0
290
     0
  0
SCALE
  5
4A
102
{ACAD_REACTORS
330
3B
102
}
330
3B
100
AcDbScale
 70
     0
300
8:1
140
8.0
141
1.0
290
     0
  0
SCALE
  5
4B
102
{ACAD_REACTORS
330
3B
102
}
330
3B
100
AcDbScale
 70
     0
300
10:1
140
10.0
141
1.0
290
     0
  0
SCALE
  5
4C
102
{ACAD_REACTORS
330
3B
102
}
330
3B
100
AcDbScale
 70
     0
300
100:1
140
100.0
141
1.0
290
     0
  0
SCALE
  5
4D
102
{ACAD_REACTORS
330
3B
102
}
330
3B
100
AcDbScale
 70
     0
300
1/128" = 1'-0"
140
0.0078125
141
12.0
290
     0
  0
SCALE
  5
4E
102
{ACAD_REACTORS
330
3B
102
}
330
3B
100
AcDbScale
 70
     0
300
1/64" = 1'-0"
140
0.015625
141
12.0
290
     0
  0
SCALE
  5
4F
102
{ACAD_REACTORS
330
3B
102
}
330
3B
100
AcDbScale
 70
     0
300
1/32" = 1'-0"
140
0.03125
141
12.0
290
     0
  0
SCALE
  5
50
102
{ACAD_REACTORS
330
3B
102
}
330
3B
100
AcDbScale
 70
     0
300
1/16" = 1'-0"
140
0.0625
141
12.0
290
     0
  0
SCALE
  5
51
102
{ACAD_REACTORS
330
3B
102
}
330
3B
100
AcDbScale
 70
     0
300
3/32" = 1'-0"
140
0.09375
141
12.0
290
     0
  0
SCALE
  5
52
102
{ACAD_REACTORS
330
3B
102
}
330
3B
100
AcDbScale
 70
     0
300
1/8" = 1'-0"
140
0.125
141
12.0
290
     0
  0
SCALE
  5
53
102
{ACAD_REACTORS
330
3B
102
}
330
3B
100
AcDbScale
 70
     0
300
3/16" = 1'-0"
140
0.1875
141
12.0
290
     0
  0
SCALE
  5
54
102
{ACAD_REACTORS
330
3B
102
}
330
3B
100
AcDbScale
 70
     0
300
1/4" = 1'-0"
140
0.25
141
12.0
290
     0
  0
SCALE
  5
55
102
{ACAD_REACTORS
330
3B
102
}
330
3B
100
AcDbScale
 70
     0
300
3/8" = 1'-0"
140
0.375
141
12.0
290
     0
  0
SCALE
  5
56
102
{ACAD_REACTORS
330
3B
102
}
330
3B
100
AcDbScale
 70
     0
300
1/2" = 1'-0"
140
0.5
141
12.0
290
     0
  0
SCALE
  5
57
102
{ACAD_REACTORS
330
3B
102
}
330
3B
100
AcDbScale
 70
     0
300
3/4" = 1'-0"
140
0.75
141
12.0
290
     0
  0
SCALE
  5
58
102
{ACAD_REACTORS
330
3B
102
}
330
3B
100
AcDbScale
 70
     0
300
1" = 1'-0"
140
1.0
141
12.0
290
     0
  0
SCALE
  5
59
102
{ACAD_REACTORS
330
3B
102
}
330
3B
100
AcDbScale
 70
     0
300
1-1/2" = 1'-0"
140
1.5
141
12.0
290
     0
  0
SCALE
  5
5A
102
{ACAD_REACTORS
330
3B
102
}
330
3B
100
AcDbScale
 70
     0
300
3" = 1'-0"
140
3.0
141
12.0
290
     0
  0
SCALE
  5
5B
102
{ACAD_REACTORS
330
3B
102
}
330
3B
100
AcDbScale
 70
     0
300
6" = 1'-0"
140
6.0
141
12.0
290
     0
  0
SCALE
  5
5C
102
{ACAD_REACTORS
330
3B
102
}
330
3B
100
AcDbScale
 70
     0
300
1'-0" = 1'-0"
140
12.0
141
12.0
290
     0
  0
VISUALSTYLE
  5
2F
102
{ACAD_REACTORS
330
2A
102
}
330
2A
100
AcDbVisualStyle
  2
2dWireframe
 70
     4
 71
     0
 72
     2
 73
     0
 90
        0
 40
-0.6
 41
-30.0
 62
     5
 63
     7
421
 16777215
 74
     1
 91
        4
 64
     7
 65
   257
 75
     1
175
     1
 42
1.0
 92
        0
 66
   257
 43
1.0
 76
     1
 77
     6
 78
     2
 67
     7
 79
     5
170
     0
171
     0
290
     0
174
     0
 93
        1
 44
0.0
173
     0
291
     0
 45
0.0
1001
ACAD
1000
AcDbSavedByObjectVersion
1070
     0
  0
VISUALSTYLE
  5
31
102
{ACAD_REACTORS
330
2A
102
}
330
2A
100
AcDbVisualStyle
  2
3D Hidden
 70
     6
 71
     1
 72
     2
 73
     2
 90
        0
 40
-0.6
 41
-30.0
 62
     5
 63
     7
421
 16777215
 74
     2
 91
        2
 64
     7
 65
   257
 75
     2
175
     1
 42
40.0
 92
        0
 66
   257
 43
1.0
 76
     1
 77
     6
 78
     2
 67
     7
 79
     3
170
     0
171
     0
290
     0
174
     0
 93
        1
 44
0.0
173
     0
291
     0
 45
0.0
1001
ACAD
1000
AcDbSavedByObjectVersion
1070
     0
  0
VISUALSTYLE
  5
30
102
{ACAD_REACTORS
330
2A
102
}
330
2A
100
AcDbVisualStyle
  2
3dWireframe
 70
     5
 71
     0
 72
     2
 73
     0
 90
        0
 40
-0.6
 41
-30.0
 62
     5
 63
     7
421
 16777215
 74
     1
 91
        4
 64
     7
 65
   257
 75
     1
175
     1
 42
1.0
 92
        0
 66
   257
 43
1.0
 76
     1
 77
     6
 78
     2
 67
     7
 79
     5
170
     0
171
     0
290
     0
174
     0
 93
        1
 44
0.0
173
     0
291
     0
 45
0.0
1001
ACAD
1000
AcDbSavedByObjectVersion
1070
     0
  0
VISUALSTYLE
  5
32
102
{ACAD_REACTORS
330
2A
102
}
330
2A
100
AcDbVisualStyle
  2
Basic
 70
     7
 71
     1
 72
     0
 73
     1
 90
        0
 40
-0.6
 41
-30.0
 62
     5
 63
     7
421
 16777215
 74
     0
 91
        4
 64
     7
 65
   257
 75
     1
175
     1
 42
1.0
 92
        8
 66
     7
 43
1.0
 76
     1
 77
     6
 78
     2
 67
     7
 79
     5
170
     0
171
     0
290
     0
174
     0
 93
        1
 44
0.0
173
     0
291
     1
 45
0.0
1001
ACAD
1000
AcDbSavedByObjectVersion
1070
     0
  0
VISUALSTYLE
  5
36
102
{ACAD_REACTORS
330
2A
102
}
330
2A
100
AcDbVisualStyle
  2
Brighten
 70
    12
 71
     2
 72
     2
 73
     0
 90
        0
 40
-0.6
 41
-30.0
 62
     5
 63
     7
421
 16777215
 74
     1
 91
        4
 64
     7
 65
   257
 75
     1
175
     1
 42
1.0
 92
        8
 66
     7
 43
1.0
 76
     1
 77
     6
 78
     2
 67
     7
 79
     5
170
     0
171
     0
290
     0
174
     0
 93
        1
 44
50.0
173
     0
291
     1
 45
0.0
1001
ACAD
1000
AcDbSavedByObjectVersion
1070
     0
  0
VISUALSTYLE
  5
3A
102
{ACAD_REACTORS
330
2A
102
}
330
2A
100
AcDbVisualStyle
  2
ColorChange
 70
    16
 71
     2
 72
     2
 73
     3
 90
        0
 40
-0.6
 41
-30.0
 62
     5
 63
     8
421
  8421504
 74
     1
 91
        4
 64
     7
 65
   257
 75
     1
175
     1
 42
1.0
 92
        8
 66
     8
424
  8421504
 43
1.0
 76
     1
 77
     6
 78
     2
 67
     7
 79
     5
170
     0
171
     0
290
     0
174
     0
 93
        1
 44
0.0
173
     0
291
     1
 45
0.0
1001
ACAD
1000
AcDbSavedByObjectVersion
1070
     0
  0
VISUALSTYLE
  5
34
102
{ACAD_REACTORS
330
2A
102
}
330
2A
100
AcDbVisualStyle
  2
Conceptual
 70
     9
 71
     3
 72
     2
 73
     0
 90
        0
 40
-0.6
 41
-30.0
 62
     5
 63
     7
421
 16777215
 74
     2
 91
        2
 64
     7
 65
   257
 75
     1
175
     1
 42
40.0
 92
        8
 66
     7
 43
1.0
 76
     1
 77
     6
 78
     2
 67
     7
 79
     3
170
     0
171
     0
290
     0
174
     0
 93
        1
 44
0.0
173
     0
291
     0
 45
0.0
1001
ACAD
1000
AcDbSavedByObjectVersion
1070
     0
  0
VISUALSTYLE
  5
35
102
{ACAD_REACTORS
330
2A
102
}
330
2A
100
AcDbVisualStyle
  2
Dim
 70
    11
 71
     2
 72
     2
 73
     0
 90
        0
 40
-0.6
 41
-30.0
 62
     5
 63
     7
421
 16777215
 74
     1
 91
        4
 64
     7
 65
   257
 75
     1
175
     1
 42
1.0
 92
        8
 66
     7
 43
1.0
 76
     1
 77
     6
 78
     2
 67
     7
 79
     5
170
     0
171
     0
290
     0
174
     0
 93
        1
 44
-50.0
173
     0
291
     1
 45
0.0
1001
ACAD
1000
AcDbSavedByObjectVersion
1070
     0
  0
VISUALSTYLE
  5
39
102
{ACAD_REACTORS
330
2A
102
}
330
2A
100
AcDbVisualStyle
  2
Facepattern
 70
    15
 71
     2
 72
     2
 73
     0
 90
        0
 40
-0.6
 41
-30.0
 62
     5
 63
     7
421
 16777215
 74
     1
 91
        4
 64
     7
 65
   257
 75
     1
175
     1
 42
1.0
 92
        8
 66
     7
 43
1.0
 76
     1
 77
     6
 78
     2
 67
     7
 79
     5
170
     0
171
     0
290
     0
174
     0
 93
        1
 44
0.0
173
     0
291
     1
 45
0.0
1001
ACAD
1000
AcDbSavedByObjectVersion
1070
     0
  0
VISUALSTYLE
  5
2B
102
{ACAD_REACTORS
330
2A
102
}
330
2A
100
AcDbVisualStyle
  2
Flat
 70
     0
 71
     2
 72
     1
 73
     1
 90
        2
 40
-0.6
 41
30.0
 62
     5
 63
     7
421
 16777215
 74
     0
 91
        4
 64
     7
 65
   257
 75
     1
175
     1
 42
1.0
 92
        8
 66
     7
 43
1.0
 76
     1
 77
     6
 78
     2
 67
     7
 79
     5
170
     0
171
     0
290
     0
174
     0
 93
       13
 44
0.0
173
     0
291
     1
 45
0.0
1001
ACAD
1000
AcDbSavedByObjectVersion
1070
     0
  0
VISUALSTYLE
  5
2C
102
{ACAD_REACTORS
330
2A
102
}
330
2A
100
AcDbVisualStyle
  2
FlatWithEdges
 70
     1
 71
     2
 72
     1
 73
     1
 90
        2
 40
-0.6
 41
30.0
 62
     5
 63
     7
421
 16777215
 74
     1
 91
        4
 64
     7
 65
   257
 75
     1
175
     1
 42
1.0
 92
        0
 66
   257
 43
1.0
 76
     1
 77
     6
 78
     2
 67
     7
 79
     5
170
     0
171
     0
290
     0
174
     0
 93
       13
 44
0.0
173
     0
291
     1
 45
0.0
1001
ACAD
1000
AcDbSavedByObjectVersion
1070
     0
  0
VISUALSTYLE
  5
2D
102
{ACAD_REACTORS
330
2A
102
}
330
2A
100
AcDbVisualStyle
  2
Gouraud
 70
     2
 71
     2
 72
     2
 73
     1
 90
        2
 40
-0.6
 41
30.0
 62
     5
 63
     7
421
 16777215
 74
     0
 91
        4
 64
     7
 65
   257
 75
     1
175
     1
 42
1.0
 92
        0
 66
     7
 43
1.0
 76
     1
 77
     6
 78
     2
 67
     7
 79
     5
170
     0
171
     0
290
     0
174
     0
 93
       13
 44
0.0
173
     0
291
     1
 45
0.0
1001
ACAD
1000
AcDbSavedByObjectVersion
1070
     0
  0
VISUALSTYLE
  5
2E
102
{ACAD_REACTORS
330
2A
102
}
330
2A
100
AcDbVisualStyle
  2
GouraudWithEdges
 70
     3
 71
     2
 72
     2
 73
     1
 90
        2
 40
-0.6
 41
30.0
 62
     5
 63
     7
421
 16777215
 74
     1
 91
        4
 64
     7
 65
   257
 75
     1
175
     1
 42
1.0
 92
        0
 66
   257
 43
1.0
 76
     1
 77
     6
 78
     2
 67
     7
 79
     5
170
     0
171
     0
290
     0
174
     0
 93
       13
 44
0.0
173
     0
291
     1
 45
0.0
1001
ACAD
1000
AcDbSavedByObjectVersion
1070
     0
  0
VISUALSTYLE
  5
38
102
{ACAD_REACTORS
330
2A
102
}
330
2A
100
AcDbVisualStyle
  2
Linepattern
 70
    14
 71
     2
 72
     2
 73
     0
 90
        0
 40
-0.6
 41
-30.0
 62
     5
 63
     7
421
 16777215
 74
     1
 91
        4
 64
     7
 65
   257
 75
     7
175
     7
 42
1.0
 92
        8
 66
     7
 43
1.0
 76
     1
 77
     6
 78
     2
 67
     7
 79
     5
170
     0
171
     0
290
     0
174
     0
 93
        1
 44
0.0
173
     0
291
     1
 45
0.0
1001
ACAD
1000
AcDbSavedByObjectVersion
1070
     0
  0
VISUALSTYLE
  5
33
102
{ACAD_REACTORS
330
2A
102
}
330
2A
100
AcDbVisualStyle
  2
Realistic
 70
     8
 71
     2
 72
     2
 73
     0
 90
        0
 40
-0.6
 41
-30.0
 62
     5
 63
     7
421
 16777215
 74
     1
 91
        0
 64
     7
 65
   257
 75
     1
175
     1
 42
1.0
 92
        8
 66
     8
424
  7895160
 43
1.0
 76
     1
 77
     6
 78
     2
 67
     7
 79
     5
170
     0
171
     0
290
     0
174
     0
 93
       13
 44
0.0
173
     0
291
     0
 45
0.0
1001
ACAD
1000
AcDbSavedByObjectVersion
1070
     0
  0
VISUALSTYLE
  5
37
102
{ACAD_REACTORS
330
2A
102
}
330
2A
100
AcDbVisualStyle
  2
Thicken
 70
    13
 71
     2
 72
     2
 73
     0
 90
        0
 40
-0.6
 41
-30.0
 62
     5
 63
     7
421
 16777215
 74
     1
 91
        4
 64
     7
 65
   257
 75
     1
175
     1
 42
1.0
 92
       12
 66
     7
 43
1.0
 76
     1
 77
     6
 78
     2
 67
     7
 79
     5
170
     0
171
     0
290
     0
174
     0
 93
        1
 44
0.0
173
     0
291
     1
 45
0.0
1001
ACAD
1000
AcDbSavedByObjectVersion
1070
     0
  0
ENDSEC
  0
EOF
