  0
SECTION
  2
HEADER
  9
$ACADVER
  1
AC1018
  9
$ACADMAINTVER
 70
     0
  9
$DWGCODEPAGE
  3
ANSI_1252
  9
$INSBASE
 10
0.0
 20
0.0
 30
0.0
  9
$EXTMIN
 10
1.000000000000000E+20
 20
1.000000000000000E+20
 30
1.000000000000000E+20
  9
$EXTMAX
 10
-1.000000000000000E+20
 20
-1.000000000000000E+20
 30
-1.000000000000000E+20
  9
$LIMMIN
 10
0.0
 20
0.0
  9
$LIMMAX
 10
12.0
 20
9.0
  9
$ORTHOMODE
 70
     0
  9
$REGENMODE
 70
     1
  9
$FILLMODE
 70
     1
  9
$QTEXTMODE
 70
     0
  9
$MIRRTEXT
 70
     1
  9
$LTSCALE
 40
1.0
  9
$ATTMODE
 70
     1
  9
$TEXTSIZE
 40
0.2
  9
$TRACEWID
 40
0.05
  9
$TEXTSTYLE
  7
Standard
  9
$CLAYER
  8
0
  9
$CELTYPE
  6
ByLayer
  9
$CECOLOR
 62
   256
  9
$CELTSCALE
 40
1.0
  9
$DISPSILH
 70
     0
  9
$DIMSCALE
 40
1.0
  9
$DIMASZ
 40
0.18
  9
$DIMEXO
 40
0.0625
  9
$DIMDLI
 40
0.38
  9
$DIMRND
 40
0.0
  9
$DIMDLE
 40
0.0
  9
$DIMEXE
 40
0.18
  9
$DIMTP
 40
0.0
  9
$DIMTM
 40
0.0
  9
$DIMTXT
 40
0.18
  9
$DIMCEN
 40
0.09
  9
$DIMTSZ
 40
0.0
  9
$DIMTOL
 70
     0
  9
$DIMLIM
 70
     0
  9
$DIMTIH
 70
     1
  9
$DIMTOH
 70
     1
  9
$DIMSE1
 70
     0
  9
$DIMSE2
 70
     0
  9
$DIMTAD
 70
     0
  9
$DIMZIN
 70
     0
  9
$DIMBLK
  1

  9
$DIMASO
 70
     1
  9
$DIMSHO
 70
     1
  9
$DIMPOST
  1

  9
$DIMAPOST
  1

  9
$DIMALT
 70
     0
  9
$DIMALTD
 70
     2
  9
$DIMALTF
 40
25.4
  9
$DIMLFAC
 40
1.0
  9
$DIMTOFL
 70
     0
  9
$DIMTVP
 40
0.0
  9
$DIMTIX
 70
     0
  9
$DIMSOXD
 70
     0
  9
$DIMSAH
 70
     0
  9
$DIMBLK1
  1

  9
$DIMBLK2
  1

  9
$DIMSTYLE
  2
Standard
  9
$DIMCLRD
 70
     0
  9
$DIMCLRE
 70
     0
  9
$DIMCLRT
 70
     0
  9
$DIMTFAC
 40
1.0
  9
$DIMGAP
 40
0.09
  9
$DIMJUST
 70
     0
  9
$DIMSD1
 70
     0
  9
$DIMSD2
 70
     0
  9
$DIMTOLJ
 70
     1
  9
$DIMTZIN
 70
     0
  9
$DIMALTZ
 70
     0
  9
$DIMALTTZ
 70
     0
  9
$DIMUPT
 70
     0
  9
$DIMDEC
 70
     4
  9
$DIMTDEC
 70
     4
  9
$DIMALTU
 70
     2
  9
$DIMALTTD
 70
     2
  9
$DIMTXSTY
  7
Standard
  9
$DIMAUNIT
 70
     0
  9
$DIMADEC
 70
     0
  9
$DIMALTRND
 40
0.0
  9
$DIMAZIN
 70
     0
  9
$DIMDSEP
 70
    46
  9
$DIMATFIT
 70
     3
  9
$DIMFRAC
 70
     0
  9
$DIMLDRBLK
  1

  9
$DIMLUNIT
 70
     2
  9
$DIMLWD
 70
    -2
  9
$DIMLWE
 70
    -2
  9
$DIMTMOVE
 70
     0
  9
$LUNITS
 70
     2
  9
$LUPREC
 70
     4
  9
$SKETCHINC
 40
0.1
  9
$FILLETRAD
 40
0.5
  9
$AUNITS
 70
     0
  9
$AUPREC
 70
     0
  9
$MENU
  1
.
  9
$ELEVATION
 40
0.0
  9
$PELEVATION
 40
0.0
  9
$THICKNESS
 40
0.0
  9
$LIMCHECK
 70
     0
  9
$CHAMFERA
 40
0.5
  9
$CHAMFERB
 40
0.5
  9
$CHAMFERC
 40
1.0
  9
$CHAMFERD
 40
0.0
  9
$SKPOLY
 70
     0
  9
$TDCREATE
 40
2457112.682763773
  9
$TDUCREATE
 40
2457112.59943044
  9
$TDUPDATE
 40
2457112.682763785
  9
$TDUUPDATE
 40
2457112.599430451
  9
$TDINDWG
 40
0.0000000116
  9
$TDUSRTIMER
 40
0.0000000116
  9
$USRTIMER
 70
     1
  9
$ANGBASE
 50
0.0
  9
$ANGDIR
 70
     0
  9
$PDMODE
 70
     0
  9
$PDSIZE
 40
0.0
  9
$PLINEWID
 40
0.0
  9
$SPLFRAME
 70
     0
  9
$SPLINETYPE
 70
     6
  9
$SPLINESEGS
 70
     8
  9
$HANDSEED
  5
B1
  9
$SURFTAB1
 70
     6
  9
$SURFTAB2
 70
     6
  9
$SURFTYPE
 70
     6
  9
$SURFU
 70
     6
  9
$SURFV
 70
     6
  9
$UCSBASE
  2

  9
$UCSNAME
  2

  9
$UCSORG
 10
0.0
 20
0.0
 30
0.0
  9
$UCSXDIR
 10
1.0
 20
0.0
 30
0.0
  9
$UCSYDIR
 10
0.0
 20
1.0
 30
0.0
  9
$UCSORTHOREF
  2

  9
$UCSORTHOVIEW
 70
     0
  9
$UCSORGTOP
 10
0.0
 20
0.0
 30
0.0
  9
$UCSORGBOTTOM
 10
0.0
 20
0.0
 30
0.0
  9
$UCSORGLEFT
 10
0.0
 20
0.0
 30
0.0
  9
$UCSORGRIGHT
 10
0.0
 20
0.0
 30
0.0
  9
$UCSORGFRONT
 10
0.0
 20
0.0
 30
0.0
  9
$UCSORGBACK
 10
0.0
 20
0.0
 30
0.0
  9
$PUCSBASE
  2

  9
$PUCSNAME
  2

  9
$PUCSORG
 10
0.0
 20
0.0
 30
0.0
  9
$PUCSXDIR
 10
1.0
 20
0.0
 30
0.0
  9
$PUCSYDIR
 10
0.0
 20
1.0
 30
0.0
  9
$PUCSORTHOREF
  2

  9
$PUCSORTHOVIEW
 70
     0
  9
$PUCSORGTOP
 10
0.0
 20
0.0
 30
0.0
  9
$PUCSORGBOTTOM
 10
0.0
 20
0.0
 30
0.0
  9
$PUCSORGLEFT
 10
0.0
 20
0.0
 30
0.0
  9
$PUCSORGRIGHT
 10
0.0
 20
0.0
 30
0.0
  9
$PUCSORGFRONT
 10
0.0
 20
0.0
 30
0.0
  9
$PUCSORGBACK
 10
0.0
 20
0.0
 30
0.0
  9
$USERI1
 70
     0
  9
$USERI2
 70
     0
  9
$USERI3
 70
     0
  9
$USERI4
 70
     0
  9
$USERI5
 70
     0
  9
$USERR1
 40
0.0
  9
$USERR2
 40
0.0
  9
$USERR3
 40
0.0
  9
$USERR4
 40
0.0
  9
$USERR5
 40
0.0
  9
$WORLDVIEW
 70
     1
  9
$SHADEDGE
 70
     3
  9
$SHADEDIF
 70
    70
  9
$TILEMODE
 70
     1
  9
$MAXACTVP
 70
    64
  9
$PINSBASE
 10
0.0
 20
0.0
 30
0.0
  9
$PLIMCHECK
 70
     0
  9
$PEXTMIN
 10
1.000000000000000E+20
 20
1.000000000000000E+20
 30
1.000000000000000E+20
  9
$PEXTMAX
 10
-1.000000000000000E+20
 20
-1.000000000000000E+20
 30
-1.000000000000000E+20
  9
$PLIMMIN
 10
0.0
 20
0.0
  9
$PLIMMAX
 10
12.0
 20
9.0
  9
$UNITMODE
 70
     0
  9
$VISRETAIN
 70
     1
  9
$PLINEGEN
 70
     0
  9
$PSLTSCALE
 70
     1
  9
$TREEDEPTH
 70
  3020
  9
$CMLSTYLE
  2
Standard
  9
$CMLJUST
 70
     0
  9
$CMLSCALE
 40
1.0
  9
$PROXYGRAPHICS
 70
     1
  9
$MEASUREMENT
 70
     0
  9
$CELWEIGHT
370
    -1
  9
$ENDCAPS
280
     0
  9
$JOINSTYLE
280
     0
  9
$LWDISPLAY
290
     0
  9
$INSUNITS
 70
    13
  9
$HYPERLINKBASE
  1

  9
$STYLESHEET
  1

  9
$XEDIT
290
     1
  9
$CEPSNTYPE
380
     0
  9
$PSTYLEMODE
290
     1
  9
$FINGERPRINTGUID
  2
{CC964320-B115-49AB-B6CB-25A4B9BBAF70}
  9
$VERSIONGUID
  2
{FAEB1C32-E019-11D5-929B-00C0DF256EC4}
  9
$EXTNAMES
290
     1
  9
$PSVPSCALE
 40
0.0
  9
$OLESTARTUP
290
     0
  9
$SORTENTS
280
   127
  9
$INDEXCTL
280
     0
  9
$HIDETEXT
280
     1
  9
$XCLIPFRAME
290
     0
  9
$HALOGAP
280
     0
  9
$OBSCOLOR
 70
   257
  9
$OBSLTYPE
280
     0
  9
$INTERSECTIONDISPLAY
280
     0
  9
$INTERSECTIONCOLOR
 70
   257
  9
$DIMASSOC
280
     2
  9
$PROJECTNAME
  1

  0
ENDSEC
  0
SECTION
  2
CLASSES
  0
CLASS
  1
ACDBDICTIONARYWDFLT
  2
AcDbDictionaryWithDefault
  3
ObjectDBX Classes
 90
        0
 91
        3
280
     0
281
     0
  0
CLASS
  1
VISUALSTYLE
  2
AcDbVisualStyle
  3
ObjectDBX Classes
 90
     4095
 91
        3
280
     0
281
     0
  0
CLASS
  1
SCALE
  2
AcDbScale
  3
ObjectDBX Classes
 90
     1153
 91
        3
280
     0
281
     0
  0
ENDSEC
  0
SECTION
  2
TABLES
  0
TABLE
  2
VPORT
  5
8
330
0
100
AcDbSymbolTable
 70
     1
  0
VPORT
  5
29
330
8
100
AcDbSymbolTableRecord
100
AcDbViewportTableRecord
  2
*Active
 70
     0
 10
0.0
 20
0.0
 11
1.0
 21
1.0
 12
10.42990654205607
 22
4.5
 13
0.0
 23
0.0
 14
0.5
 24
0.5
 15
0.5
 25
0.5
 16
0.0
 26
0.0
 36
1.0
 17
0.0
 27
0.0
 37
0.0
 40
9.0
 41
1.972972972850329
 42
50.0
 43
0.0
 44
0.0
 50
0.0
 51
0.0
 71
     0
 72
   100
 73
     1
 74
     3
 75
     0
 76
     0
 77
     0
 78
     0
281
     0
 65
     1
110
0.0
120
0.0
130
0.0
111
1.0
121
0.0
131
0.0
112
0.0
122
1.0
132
0.0
 79
     0
146
0.0
  0
ENDTAB
  0
TABLE
  2
LTYPE
  5
5
330
0
100
AcDbSymbolTable
 70
     1
  0
LTYPE
  5
14
330
5
100
AcDbSymbolTableRecord
100
AcDbLinetypeTableRecord
  2
ByBlock
 70
     0
  3

 72
    65
 73
     0
 40
0.0
  0
LTYPE
  5
15
330
5
100
AcDbSymbolTableRecord
100
AcDbLinetypeTableRecord
  2
ByLayer
 70
     0
  3

 72
    65
 73
     0
 40
0.0
  0
LTYPE
  5
16
330
5
100
AcDbSymbolTableRecord
100
AcDbLinetypeTableRecord
  2
Continuous
 70
     0
  3
Solid line
 72
    65
 73
     0
 40
0.0
  0
ENDTAB
  0
TABLE
  2
LAYER
  5
2
330
0
100
AcDbSymbolTable
 70
     2
  0
LAYER
  5
10
330
2
100
AcDbSymbolTableRecord
100
AcDbLayerTableRecord
  2
0
 70
     0
 62
     7
  6
Continuous
370
    -3
390
F
  0
LAYER
  5
5E
330
2
100
AcDbSymbolTableRecord
100
AcDbLayerTableRecord
  2
text2
 70
     0
 62
    16
420
  8388608
  6
Continuous
370
    -3
390
F
  0
ENDTAB
  0
TABLE
  2
STYLE
  5
3
330
0
100
AcDbSymbolTable
 70
     1
  0
STYLE
  5
11
330
3
100
AcDbSymbolTableRecord
100
AcDbTextStyleTableRecord
  2
Standard
 70
     0
 40
0.0
 41
1.0
 50
0.0
 71
     0
 42
0.2
  3
txt
  4

  0
ENDTAB
  0
TABLE
  2
VIEW
  5
6
330
0
100
AcDbSymbolTable
 70
     0
  0
ENDTAB
  0
TABLE
  2
UCS
  5
7
330
0
100
AcDbSymbolTable
 70
     0
  0
ENDTAB
  0
TABLE
  2
APPID
  5
9
330
0
100
AcDbSymbolTable
 70
     1
  0
APPID
  5
12
330
9
100
AcDbSymbolTableRecord
100
AcDbRegAppTableRecord
  2
ACAD
 70
     0
  0
ENDTAB
  0
TABLE
  2
DIMSTYLE
  5
A
330
0
100
AcDbSymbolTable
 70
     1
100
AcDbDimStyleTable
  0
DIMSTYLE
105
27
330
A
100
AcDbSymbolTableRecord
100
AcDbDimStyleTableRecord
  2
Standard
 70
     0
340
11
  0
ENDTAB
  0
TABLE
  2
BLOCK_RECORD
  5
1
330
0
100
AcDbSymbolTable
 70
     1
  0
BLOCK_RECORD
  5
1F
330
1
100
AcDbSymbolTableRecord
100
AcDbBlockTableRecord
  2
*Model_Space
340
22
  0
BLOCK_RECORD
  5
1B
330
1
100
AcDbSymbolTableRecord
100
AcDbBlockTableRecord
  2
*Paper_Space
340
1E
  0
BLOCK_RECORD
  5
23
330
1
100
AcDbSymbolTableRecord
100
AcDbBlockTableRecord
  2
*Paper_Space0
340
26
  0
ENDTAB
  0
ENDSEC
  0
SECTION
  2
BLOCKS
  0
BLOCK
  5
20
330
1F
100
AcDbEntity
  8
0
100
AcDbBlockBegin
  2
*Model_Space
 70
     0
 10
0.0
 20
0.0
 30
0.0
  3
*Model_Space
  1

  0
ENDBLK
  5
21
330
1F
100
AcDbEntity
  8
0
100
AcDbBlockEnd
  0
BLOCK
  5
1C
330
1B
100
AcDbEntity
 67
     1
  8
0
100
AcDbBlockBegin
  2
*Paper_Space
 70
     0
 10
0.0
 20
0.0
 30
0.0
  3
*Paper_Space
  1

  0
ENDBLK
  5
1D
330
1B
100
AcDbEntity
 67
     1
  8
0
100
AcDbBlockEnd
  0
BLOCK
  5
24
330
23
100
AcDbEntity
  8
0
100
AcDbBlockBegin
  2
*Paper_Space0
 70
     0
 10
0.0
 20
0.0
 30
0.0
  3
*Paper_Space0
  1

  0
ENDBLK
  5
25
330
23
100
AcDbEntity
  8
0
100
AcDbBlockEnd
  0
ENDSEC
  0
SECTION
  2
ENTITIES
  0
LWPOLYLINE
  5
5D
330
1F
100
AcDbEntity
  8
text2
100
AcDbPolyline
 90
        7
 70
     0
 43
0.0
 10
2663.2
 20
65.0
 10
2663.2
 20
181.4
 10
2675.7
 20
211.4
 10
2710.7
 20
211.4
 10
2723.2
 20
181.4
 10
2723.2
 20
65.0
 10
2663.2
 20
65.0
  0
LWPOLYLINE
  5
5F
330
1F
100
AcDbEntity
  8
text2
100
AcDbPolyline
 90
       10
 70
     1
 43
0.0
 10
2310.145
 20
73.0
 10
2310.145
 20
123.0
 10
2338.715
 20
123.0
 10
2345.855
 20
115.855
 10
2345.855
 20
105.145
 10
2338.715
 20
98.0
 10
2345.855
 20
90.855
 10
2345.855
 20
80.145
 10
2338.715
 20
73.0
 10
2310.145
 20
73.0
  0
LWPOLYLINE
  5
60
330
1F
100
AcDbEntity
  8
text2
100
AcDbPolyline
 90
        9
 70
     1
 43
0.0
 10
1935.145
 20
80.145
 10
1935.145
 20
115.855
 10
1942.285
 20
123.0
 10
1956.575
 20
123.0
 10
1963.715
 20
115.855
 10
1963.715
 20
80.145
 10
1956.575
 20
73.0
 10
1942.285
 20
73.0
 10
1935.145
 20
80.145
  0
LWPOLYLINE
  5
61
330
1F
100
AcDbEntity
  8
text2
100
AcDbPolyline
 90
       16
 70
     1
 43
0.0
 10
1981.575
 20
73.0
 10
1981.575
 20
83.715
 10
2010.145
 20
105.145
 10
2010.145
 20
112.285
 10
2006.575
 20
115.855
 10
1992.285
 20
115.855
 10
1988.715
 20
112.285
 10
1981.575
 20
115.855
 10
1988.715
 20
123.0
 10
2010.145
 20
123.0
 10
2017.285
 20
115.855
 10
2017.285
 20
101.57
 10
1988.715
 20
80.145
 10
2017.285
 20
80.145
 10
2017.285
 20
73.0
 10
1981.575
 20
73.0
  0
LWPOLYLINE
  5
62
330
1F
100
AcDbEntity
  8
text2
100
AcDbPolyline
 90
       26
 70
     1
 43
0.0
 10
2060.145
 20
123.0
 10
2067.285
 20
115.855
 10
2067.285
 20
105.145
 10
2060.145
 20
98.0
 10
2067.285
 20
90.855
 10
2067.285
 20
80.145
 10
2060.145
 20
73.0
 10
2038.715
 20
73.0
 10
2031.575
 20
80.145
 10
2038.715
 20
83.715
 10
2042.285
 20
80.145
 10
2056.575
 20
80.145
 10
2060.145
 20
83.715
 10
2060.145
 20
87.285
 10
2053.0
 20
94.43
 10
2045.86
 20
94.43
 10
2045.86
 20
101.57
 10
2053.0
 20
101.57
 10
2060.145
 20
108.715
 10
2060.145
 20
112.285
 10
2056.575
 20
115.855
 10
2042.285
 20
115.855
 10
2038.715
 20
112.285
 10
2031.575
 20
115.855
 10
2038.715
 20
123.0
 10
2060.145
 20
123.0
  0
LWPOLYLINE
  5
63
330
1F
100
AcDbEntity
  8
text2
100
AcDbPolyline
 90
        9
 70
     1
 43
0.0
 10
65.7
 20
1982.846
 10
65.7
 20
2032.846
 10
94.27
 20
2032.846
 10
101.41
 20
2025.701
 10
101.41
 20
2011.416
 10
94.27
 20
2004.276
 10
72.84
 20
2004.276
 10
72.84
 20
1982.846
 10
65.7
 20
1982.846
  0
LWPOLYLINE
  5
64
330
1F
100
AcDbEntity
  8
text2
100
AcDbPolyline
 90
        4
 70
     1
 43
0.0
 10
65.8
 20
1580.25
 10
65.8
 20
1655.25
 10
141.0
 20
1655.25
 10
141.0
 20
1580.25
  0
LWPOLYLINE
  5
65
330
1F
100
AcDbEntity
  8
text2
100
AcDbPolyline
 90
        4
 70
     1
 43
0.0
 10
66.0
 20
1080.25
 10
66.0
 20
1155.25
 10
141.0
 20
1155.25
 10
141.0
 20
1080.25
  0
LWPOLYLINE
  5
66
330
1F
100
AcDbEntity
  8
text2
100
AcDbPolyline
 90
        4
 70
     1
 43
0.0
 10
66.0
 20
1205.25
 10
66.0
 20
1280.25
 10
141.0
 20
1280.25
 10
141.0
 20
1205.25
  0
LWPOLYLINE
  5
67
330
1F
100
AcDbEntity
  8
text2
100
AcDbPolyline
 90
        4
 70
     1
 43
0.0
 10
66.0
 20
1330.25
 10
66.0
 20
1405.25
 10
141.0
 20
1405.25
 10
141.0
 20
1330.25
  0
LWPOLYLINE
  5
68
330
1F
100
AcDbEntity
  8
text2
100
AcDbPolyline
 90
        4
 70
     1
 43
0.0
 10
66.0
 20
1455.25
 10
66.0
 20
1530.25
 10
141.0
 20
1530.25
 10
141.0
 20
1455.25
  0
LWPOLYLINE
  5
69
330
1F
100
AcDbEntity
  8
text2
100
AcDbPolyline
 90
        4
 70
     1
 43
0.0
 10
66.0
 20
1705.25
 10
66.0
 20
1780.25
 10
141.0
 20
1780.25
 10
141.0
 20
1705.25
  0
LWPOLYLINE
  5
6A
330
1F
100
AcDbEntity
  8
text2
100
AcDbPolyline
 90
        4
 70
     1
 43
0.0
 10
66.0
 20
1830.25
 10
66.0
 20
1905.25
 10
141.0
 20
1905.25
 10
141.0
 20
1830.25
  0
LWPOLYLINE
  5
6B
330
1F
100
AcDbEntity
  8
text2
100
AcDbPolyline
 90
       11
 70
     1
 43
0.0
 10
85.67
 20
1952.173
 10
89.242
 20
1952.173
 10
89.242
 20
1948.6
 10
78.528
 20
1948.6
 10
78.528
 20
1952.173
 10
82.10000000000001
 20
1952.173
 10
82.10000000000001
 20
1970.028
 10
78.528
 20
1970.028
 10
82.10000000000001
 20
1973.6
 10
85.67
 20
1973.6
 10
85.67
 20
1952.173
  0
LWPOLYLINE
  5
6C
330
1F
100
AcDbEntity
  8
text2
100
AcDbPolyline
 90
       19
 70
     1
 43
0.0
 10
115.7
 20
2032.846
 10
151.41
 20
2032.846
 10
151.41
 20
2025.701
 10
122.84
 20
2025.701
 10
122.84
 20
2014.991
 10
144.27
 20
2014.991
 10
151.41
 20
2007.846
 10
151.41
 20
1989.991
 10
144.27
 20
1982.846
 10
122.84
 20
1982.846
 10
115.7
 20
1989.991
 10
122.84
 20
1993.561
 10
126.41
 20
1989.991
 10
140.7
 20
1989.991
 10
144.27
 20
1993.561
 10
144.27
 20
2004.276
 10
140.7
 20
2007.846
 10
115.7
 20
2007.846
 10
115.7
 20
2032.846
  0
LWPOLYLINE
  5
6D
330
1F
100
AcDbEntity
  8
text2
100
AcDbPolyline
 90
       13
 70
     1
 43
0.0
 10
174.24
 20
1981.444
 10
174.24
 20
1985.017
 10
177.812
 20
1985.017
 10
177.812
 20
2002.872
 10
174.24
 20
2002.872
 10
174.24
 20
2006.444
 10
184.954
 20
2006.444
 10
184.954
 20
2002.872
 10
181.382
 20
2002.872
 10
181.382
 20
1985.017
 10
184.954
 20
1985.017
 10
184.954
 20
1981.444
 10
174.24
 20
1981.444
  0
LWPOLYLINE
  5
6E
330
1F
100
AcDbEntity
  8
text2
100
AcDbPolyline
 90
       11
 70
     1
 43
0.0
 10
195.669
 20
1981.444
 10
195.669
 20
2006.444
 10
211.739
 20
2006.444
 10
211.739
 20
2002.872
 10
199.24
 20
2002.872
 10
199.24
 20
1995.729
 10
206.382
 20
1995.729
 10
206.382
 20
1992.159
 10
199.24
 20
1992.159
 10
199.24
 20
1981.444
 10
195.669
 20
1981.444
  0
LWPOLYLINE
  5
6F
330
1F
100
AcDbEntity
  8
text2
100
AcDbPolyline
 90
       13
 70
     1
 43
0.0
 10
249.24
 20
1981.444
 10
249.24
 20
1985.017
 10
252.812
 20
1985.017
 10
252.812
 20
2002.872
 10
249.24
 20
2002.872
 10
249.24
 20
2006.444
 10
259.954
 20
2006.444
 10
259.954
 20
2002.872
 10
256.382
 20
2002.872
 10
256.382
 20
1985.017
 10
259.954
 20
1985.017
 10
259.954
 20
1981.444
 10
249.24
 20
1981.444
  0
LWPOLYLINE
  5
70
330
1F
100
AcDbEntity
  8
text2
100
AcDbPolyline
 90
       11
 70
     1
 43
0.0
 10
270.669
 20
1981.444
 10
270.669
 20
2006.444
 10
276.025
 20
2006.444
 10
284.954
 20
1986.801
 10
284.954
 20
2006.444
 10
288.525
 20
2006.444
 10
288.525
 20
1981.444
 10
283.169
 20
1981.444
 10
274.24
 20
2001.087
 10
274.24
 20
1981.444
 10
270.669
 20
1981.444
  0
LWPOLYLINE
  5
71
330
1F
100
AcDbEntity
  8
text2
100
AcDbPolyline
 90
        4
 70
     1
 43
0.0
 10
294.7
 20
65.0
 10
294.7
 20
162.0
 10
391.7
 20
162.0
 10
391.7
 20
65.0
  0
LWPOLYLINE
  5
72
330
1F
100
AcDbEntity
  8
text2
100
AcDbPolyline
 90
       13
 70
     1
 43
0.0
 10
523.0
 20
2902.0
 10
523.0
 20
2927.0
 10
537.284
 20
2927.0
 10
540.855
 20
2923.428
 10
540.855
 20
2916.285
 10
537.284
 20
2912.715
 10
531.927
 20
2912.715
 10
540.855
 20
2903.786
 10
540.855
 20
2902.0
 10
537.284
 20
2902.0
 10
526.57
 20
2912.715
 10
526.57
 20
2902.0
 10
523.0
 20
2902.0
  0
LWPOLYLINE
  5
73
330
1F
100
AcDbEntity
  8
text2
100
AcDbPolyline
 90
        9
 70
     1
 43
0.0
 10
423.115
 20
2873.844
 10
423.115
 20
2923.844
 10
451.685
 20
2923.844
 10
458.825
 20
2916.699
 10
458.825
 20
2902.414
 10
451.685
 20
2895.274
 10
430.255
 20
2895.274
 10
430.255
 20
2873.844
 10
423.115
 20
2873.844
  0
LWPOLYLINE
  5
74
330
1F
100
AcDbEntity
  8
text2
100
AcDbPolyline
 90
       11
 70
     1
 43
0.0
 10
547.999
 20
2902.0
 10
547.999
 20
2927.0
 10
564.069
 20
2927.0
 10
564.069
 20
2923.428
 10
551.57
 20
2923.428
 10
551.57
 20
2916.285
 10
558.712
 20
2916.285
 10
558.712
 20
2912.715
 10
551.57
 20
2912.715
 10
551.57
 20
2902.0
 10
547.999
 20
2902.0
  0
LWPOLYLINE
  5
75
330
1F
100
AcDbEntity
  8
text2
100
AcDbPolyline
 90
        4
 70
     1
 43
0.0
 10
444.7
 20
65.0
 10
444.7
 20
162.0
 10
541.7
 20
162.0
 10
541.7
 20
65.0
  0
LWPOLYLINE
  5
76
330
1F
100
AcDbEntity
  8
text2
100
AcDbPolyline
 90
        9
 70
     1
 43
0.0
 10
521.8580000000001
 20
2879.0
 10
521.8580000000001
 20
2886.142
 10
525.428
 20
2889.712
 10
530.785
 20
2889.712
 10
534.357
 20
2886.142
 10
534.357
 20
2879.0
 10
530.785
 20
2875.427
 10
525.428
 20
2875.427
 10
521.8580000000001
 20
2879.0
  0
LWPOLYLINE
  5
77
330
1F
100
AcDbEntity
  8
text2
100
AcDbPolyline
 90
       11
 70
     1
 43
0.0
 10
494.54
 20
2880.989
 10
501.685
 20
2880.989
 10
501.685
 20
2873.844
 10
480.255
 20
2873.844
 10
480.255
 20
2880.989
 10
487.4
 20
2880.989
 10
487.4
 20
2916.699
 10
480.255
 20
2916.699
 10
487.4
 20
2923.844
 10
494.54
 20
2923.844
 10
494.54
 20
2880.989
  0
LWPOLYLINE
  5
78
330
1F
100
AcDbEntity
  8
text2
100
AcDbPolyline
 90
       15
 70
     1
 43
0.0
 10
557.572
 20
2875.427
 10
557.572
 20
2877.213
 10
555.785
 20
2875.427
 10
550.428
 20
2875.427
 10
546.8580000000001
 20
2879.0
 10
546.8580000000001
 20
2889.712
 10
550.428
 20
2889.712
 10
550.428
 20
2880.784
 10
552.215
 20
2879.0
 10
555.785
 20
2879.0
 10
557.572
 20
2880.784
 10
557.572
 20
2889.712
 10
561.142
 20
2889.712
 10
561.142
 20
2875.427
 10
557.572
 20
2875.427
  0
LWPOLYLINE
  5
79
330
1F
100
AcDbEntity
  8
text2
100
AcDbPolyline
 90
       13
 70
     1
 43
0.0
 10
580.785
 20
2891.499
 10
584.3580000000001
 20
2891.499
 10
584.3580000000001
 20
2887.927
 10
580.785
 20
2887.927
 10
580.785
 20
2875.427
 10
577.215
 20
2875.427
 10
577.215
 20
2887.927
 10
573.643
 20
2887.927
 10
573.643
 20
2891.499
 10
577.215
 20
2891.499
 10
577.215
 20
2900.427
 10
580.785
 20
2900.427
 10
580.785
 20
2891.499
  0
LWPOLYLINE
  5
7A
330
1F
100
AcDbEntity
  8
text2
100
AcDbPolyline
 90
        4
 70
     1
 43
0.0
 10
690.818
 20
1971.133
 10
690.818
 20
2066.133
 10
785.818
 20
2066.133
 10
785.818
 20
1971.133
  0
LWPOLYLINE
  5
7B
330
1F
100
AcDbEntity
  8
text2
100
AcDbPolyline
 90
        9
 70
     1
 43
0.0
 10
668.2
 20
162.0
 10
691.7
 20
162.0
 10
691.7
 20
65.0
 10
594.7
 20
65.0
 10
594.7
 20
162.0
 10
618.2
 20
162.0
 10
618.2
 20
193.0
 10
668.2
 20
193.0
 10
668.2
 20
162.0
  0
LWPOLYLINE
  5
7C
330
1F
100
AcDbEntity
  8
text2
100
AcDbPolyline
 90
        4
 70
     1
 43
0.0
 10
744.7
 20
65.0
 10
744.7
 20
162.0
 10
841.7
 20
162.0
 10
841.7
 20
65.0
  0
LWPOLYLINE
  5
7D
330
1F
100
AcDbEntity
  8
text2
100
AcDbPolyline
 90
        4
 70
     1
 43
0.0
 10
894.7
 20
65.0
 10
894.7
 20
162.0
 10
991.7
 20
162.0
 10
991.7
 20
65.0
  0
LWPOLYLINE
  5
7E
330
1F
100
AcDbEntity
  8
text2
100
AcDbPolyline
 90
        4
 70
     1
 43
0.0
 10
1044.7
 20
65.0
 10
1044.7
 20
162.0
 10
1141.7
 20
162.0
 10
1141.7
 20
65.0
  0
LWPOLYLINE
  5
7F
330
1F
100
AcDbEntity
  8
text2
100
AcDbPolyline
 90
        4
 70
     1
 43
0.0
 10
1194.7
 20
65.0
 10
1194.7
 20
162.0
 10
1291.7
 20
162.0
 10
1291.7
 20
65.0
  0
LWPOLYLINE
  5
80
330
1F
100
AcDbEntity
  8
text2
100
AcDbPolyline
 90
        4
 70
     1
 43
0.0
 10
1287.0
 20
866.5
 10
1287.0
 20
961.5
 10
1382.0
 20
961.5
 10
1382.0
 20
866.5
  0
LWPOLYLINE
  5
81
330
1F
100
AcDbEntity
  8
text2
100
AcDbPolyline
 90
        4
 70
     1
 43
0.0
 10
1344.7
 20
65.0
 10
1344.7
 20
162.0
 10
1441.7
 20
162.0
 10
1441.7
 20
65.0
  0
LWPOLYLINE
  5
82
330
1F
100
AcDbEntity
  8
text2
100
AcDbPolyline
 90
        9
 70
     1
 43
0.0
 10
1471.66
 20
111.6
 10
1471.66
 20
161.6
 10
1500.23
 20
161.6
 10
1507.37
 20
154.455
 10
1507.37
 20
140.17
 10
1500.23
 20
133.03
 10
1478.8
 20
133.03
 10
1478.8
 20
111.6
 10
1471.66
 20
111.6
  0
LWPOLYLINE
  5
83
330
1F
100
AcDbEntity
  8
text2
100
AcDbPolyline
 90
       12
 70
     1
 43
0.0
 10
1550.23
 20
136.6
 10
1557.37
 20
136.6
 10
1557.37
 20
129.455
 10
1550.23
 20
129.455
 10
1550.23
 20
111.6
 10
1543.085
 20
111.6
 10
1543.085
 20
129.455
 10
1521.66
 20
129.455
 10
1521.66
 20
136.6
 10
1543.085
 20
161.6
 10
1550.23
 20
161.6
 10
1550.23
 20
136.6
  0
LWPOLYLINE
  5
84
330
1F
100
AcDbEntity
  8
text2
100
AcDbPolyline
 90
        4
 70
     1
 43
0.0
 10
1587.0
 20
866.5
 10
1587.0
 20
961.5
 10
1682.0
 20
961.5
 10
1682.0
 20
866.5
  0
LWPOLYLINE
  5
85
330
1F
100
AcDbEntity
  8
text2
100
AcDbPolyline
 90
       17
 70
     1
 43
0.0
 10
1685.145
 20
58.715
 10
1685.145
 20
65.855
 10
1703.0
 20
65.855
 10
1706.575
 20
69.429
 10
1706.575
 20
76.571
 10
1703.0
 20
73.0
 10
1692.285
 20
73.0
 10
1685.145
 20
80.145
 10
1685.145
 20
94.43
 10
1692.285
 20
101.57
 10
1703.0
 20
101.57
 10
1706.575
 20
98.0
 10
1706.575
 20
101.57
 10
1713.715
 20
101.57
 10
1713.715
 20
65.855
 10
1706.575
 20
58.715
 10
1685.145
 20
58.715
  0
LWPOLYLINE
  5
86
330
1F
100
AcDbEntity
  8
text2
100
AcDbPolyline
 90
        9
 70
     1
 43
0.0
 10
1745.86
 20
73.0
 10
1745.86
 20
115.855
 10
1731.575
 20
115.855
 10
1731.575
 20
123.0
 10
1767.285
 20
123.0
 10
1767.285
 20
115.855
 10
1753.0
 20
115.855
 10
1753.0
 20
73.0
 10
1745.86
 20
73.0
  0
LWPOLYLINE
  5
87
330
1F
100
AcDbEntity
  8
text2
100
AcDbPolyline
 90
       25
 70
     1
 43
0.0
 10
1810.145
 20
123.0
 10
1817.285
 20
115.855
 10
1810.145
 20
112.285
 10
1806.575
 20
115.855
 10
1792.285
 20
115.855
 10
1788.715
 20
112.285
 10
1788.715
 20
105.145
 10
1792.285
 20
101.57
 10
1810.145
 20
101.57
 10
1817.285
 20
94.43
 10
1817.285
 20
80.145
 10
1810.145
 20
73.0
 10
1788.715
 20
73.0
 10
1781.575
 20
80.145
 10
1788.715
 20
83.715
 10
1792.285
 20
80.145
 10
1806.575
 20
80.145
 10
1810.145
 20
83.715
 10
1810.145
 20
90.855
 10
1806.575
 20
94.43
 10
1788.715
 20
94.43
 10
1781.575
 20
101.57
 10
1781.575
 20
115.855
 10
1788.715
 20
123.0
 10
1810.145
 20
123.0
  0
LWPOLYLINE
  5
88
330
1F
100
AcDbEntity
  8
text2
100
AcDbPolyline
 90
       21
 70
     1
 43
0.0
 10
1831.575
 20
80.145
 10
1831.575
 20
115.855
 10
1838.715
 20
123.0
 10
1860.145
 20
123.0
 10
1867.285
 20
115.855
 10
1867.285
 20
108.715
 10
1860.145
 20
108.715
 10
1860.145
 20
112.285
 10
1856.575
 20
115.855
 10
1842.285
 20
115.855
 10
1838.715
 20
112.285
 10
1838.715
 20
83.715
 10
1842.285
 20
80.145
 10
1856.575
 20
80.145
 10
1860.145
 20
83.715
 10
1860.145
 20
87.285
 10
1867.285
 20
87.285
 10
1867.285
 20
80.145
 10
1860.145
 20
73.0
 10
1838.715
 20
73.0
 10
1831.575
 20
80.145
  0
LWPOLYLINE
  5
89
330
1F
100
AcDbEntity
  8
text2
100
AcDbPolyline
 90
        9
 70
     1
 43
0.0
 10
1885.145
 20
80.145
 10
1885.145
 20
115.855
 10
1892.285
 20
123.0
 10
1906.575
 20
123.0
 10
1913.715
 20
115.855
 10
1913.715
 20
80.145
 10
1906.575
 20
73.0
 10
1892.285
 20
73.0
 10
1885.145
 20
80.145
  0
LWPOLYLINE
  5
8A
330
1F
100
AcDbEntity
  8
text2
100
AcDbPolyline
 90
      142
 70
     1
 43
0.0
 10
2235.358
 20
146.489
 10
2233.358
 20
146.889
 10
2222.158
 20
146.889
 10
2217.358
 20
146.089
 10
2214.558
 20
145.289
 10
2212.158
 20
144.889
 10
2209.758
 20
144.089
 10
2207.358
 20
142.889
 10
2204.958
 20
142.089
 10
2202.958
 20
140.889
 10
2200.158
 20
139.289
 10
2197.758
 20
137.689
 10
2196.158
 20
138.089
 10
2190.958
 20
139.689
 10
2184.958
 20
140.889
 10
2179.358
 20
141.289
 10
2179.758
 20
143.289
 10
2183.758
 20
152.089
 10
2186.158
 20
155.289
 10
2189.758
 20
158.889
 10
2191.358
 20
160.089
 10
2192.558
 20
160.889
 10
2194.158
 20
162.089
 10
2195.758
 20
162.889
 10
2199.758
 20
164.489
 10
2201.758
 20
164.889
 10
2203.758
 20
165.689
 10
2205.758
 20
165.689
 10
2208.158
 20
166.089
 10
2210.558
 20
166.089
 10
2207.758
 20
166.489
 10
2200.158
 20
166.489
 10
2197.758
 20
166.089
 10
2190.558
 20
163.689
 10
2185.758
 20
161.289
 10
2183.358
 20
159.689
 10
2181.358
 20
158.089
 10
2177.758
 20
154.889
 10
2174.558
 20
150.489
 10
2172.158
 20
146.889
 10
2171.358
 20
147.689
 10
2170.558
 20
149.289
 10
2168.358
 20
151.489
 10
2168.358
 20
107.889
 10
2168.558
 20
107.689
 10
2169.358
 20
106.489
 10
2169.758
 20
106.089
 10
2170.158
 20
104.889
 10
2172.558
 20
100.089
 10
2175.358
 20
96.489
 10
2176.958
 20
94.089
 10
2180.958
 20
90.089
 10
2181.758
 20
89.68900000000001
 10
2173.358
 20
89.68900000000001
 10
2170.158
 20
90.089
 10
2168.358
 20
90.289
 10
2168.358
 20
86.489
 10
2170.958
 20
86.489
 10
2182.958
 20
87.68900000000001
 10
2183.758
 20
88.089
 10
2185.358
 20
86.889
 10
2187.358
 20
85.289
 10
2189.758
 20
84.489
 10
2192.158
 20
83.289
 10
2196.958
 20
81.68900000000001
 10
2199.758
 20
81.289
 10
2202.158
 20
81.289
 10
2198.158
 20
82.089
 10
2194.158
 20
83.68900000000001
 10
2192.558
 20
84.489
 10
2190.958
 20
85.68900000000001
 10
2188.558
 20
88.089
 10
2188.158
 20
88.889
 10
2190.158
 20
89.289
 10
2193.358
 20
90.489
 10
2196.558
 20
91.289
 10
2199.358
 20
92.489
 10
2196.958
 20
91.68900000000001
 10
2194.158
 20
90.889
 10
2188.558
 20
90.089
 10
2187.758
 20
90.089
 10
2187.358
 20
90.489
 10
2186.158
 20
93.68900000000001
 10
2185.758
 20
96.889
 10
2185.358
 20
100.489
 10
2185.758
 20
104.489
 10
2186.558
 20
108.489
 10
2187.758
 20
112.489
 10
2189.358
 20
116.489
 10
2191.358
 20
120.489
 10
2193.758
 20
124.489
 10
2196.158
 20
128.089
 10
2198.158
 20
130.489
 10
2198.958
 20
129.689
 10
2202.958
 20
127.289
 10
2206.158
 20
124.489
 10
2208.958
 20
121.289
 10
2210.958
 20
118.089
 10
2212.158
 20
114.489
 10
2212.558
 20
111.689
 10
2212.558
 20
110.089
 10
2212.158
 20
108.089
 10
2212.158
 20
106.489
 10
2211.758
 20
105.289
 10
2210.158
 20
102.089
 10
2209.358
 20
100.889
 10
2208.558
 20
99.289
 10
2207.358
 20
98.089
 10
2205.758
 20
96.889
 10
2204.158
 20
95.289
 10
2202.558
 20
94.089
 10
2204.958
 20
95.68900000000001
 10
2206.958
 20
96.889
 10
2208.958
 20
98.889
 10
2210.958
 20
100.489
 10
2212.558
 20
102.089
 10
2215.758
 20
106.089
 10
2216.958
 20
107.689
 10
2218.558
 20
111.689
 10
2218.958
 20
113.689
 10
2218.958
 20
115.689
 10
2218.558
 20
118.889
 10
2217.358
 20
122.489
 10
2215.358
 20
125.689
 10
2212.958
 20
128.889
 10
2209.358
 20
131.689
 10
2205.758
 20
134.089
 10
2203.358
 20
135.289
 10
2206.558
 20
137.689
 10
2208.958
 20
139.289
 10
2210.958
 20
140.489
 10
2212.958
 20
141.289
 10
2214.958
 20
142.489
 10
2216.558
 20
143.289
 10
2218.558
 20
143.689
 10
2220.558
 20
144.489
 10
2222.558
 20
144.889
 10
2224.558
 20
145.689
 10
2226.158
 20
146.089
 10
2228.158
 20
146.089
 10
2230.158
 20
146.489
 10
2235.358
 20
146.489
  0
LWPOLYLINE
  5
8B
330
1F
100
AcDbEntity
  8
text2
100
AcDbPolyline
 90
       95
 70
     1
 43
0.0
 10
2168.358
 20
151.489
 10
2166.158
 20
153.689
 10
2164.958
 20
154.489
 10
2163.358
 20
155.689
 10
2161.358
 20
156.489
 10
2159.758
 20
157.289
 10
2158.158
 20
157.689
 10
2154.158
 20
158.489
 10
2146.158
 20
158.489
 10
2142.158
 20
157.689
 10
2139.758
 20
156.889
 10
2140.158
 20
156.889
 10
2141.758
 20
157.289
 10
2143.758
 20
157.289
 10
2145.358
 20
157.689
 10
2146.958
 20
157.689
 10
2148.558
 20
157.289
 10
2150.158
 20
157.289
 10
2151.758
 20
156.889
 10
2152.958
 20
156.489
 10
2154.558
 20
155.689
 10
2155.758
 20
155.289
 10
2157.358
 20
154.489
 10
2159.758
 20
152.889
 10
2163.358
 20
149.289
 10
2164.958
 20
146.889
 10
2165.758
 20
145.289
 10
2166.558
 20
144.089
 10
2167.358
 20
142.489
 10
2167.358
 20
141.289
 10
2160.158
 20
140.489
 10
2156.958
 20
139.689
 10
2153.358
 20
138.889
 10
2150.158
 20
138.089
 10
2146.958
 20
136.889
 10
2143.758
 20
136.089
 10
2140.958
 20
134.889
 10
2138.158
 20
133.289
 10
2135.358
 20
132.089
 10
2132.958
 20
130.489
 10
2134.958
 20
131.289
 10
2137.358
 20
132.489
 10
2139.758
 20
133.289
 10
2141.758
 20
134.089
 10
2144.158
 20
134.489
 10
2146.958
 20
135.289
 10
2149.358
 20
135.689
 10
2154.958
 20
136.489
 10
2157.758
 20
136.489
 10
2160.558
 20
136.889
 10
2166.158
 20
137.289
 10
2168.158
 20
137.289
 10
2167.758
 20
136.489
 10
2166.558
 20
131.289
 10
2166.158
 20
126.089
 10
2166.158
 20
120.489
 10
2166.558
 20
117.289
 10
2164.158
 20
118.489
 10
2162.158
 20
118.889
 10
2160.558
 20
119.689
 10
2158.558
 20
119.689
 10
2156.958
 20
120.089
 10
2154.958
 20
120.089
 10
2152.958
 20
119.689
 10
2151.358
 20
119.689
 10
2149.358
 20
118.889
 10
2147.758
 20
118.489
 10
2145.758
 20
117.689
 10
2144.158
 20
116.889
 10
2142.158
 20
115.689
 10
2140.558
 20
114.889
 10
2138.558
 20
113.689
 10
2135.758
 20
110.889
 10
2136.958
 20
111.689
 10
2138.558
 20
112.889
 10
2140.158
 20
113.689
 10
2141.358
 20
114.489
 10
2144.558
 20
115.289
 10
2145.758
 20
115.689
 10
2147.358
 20
116.089
 10
2148.958
 20
116.089
 10
2150.558
 20
116.489
 10
2152.158
 20
116.089
 10
2153.358
 20
116.089
 10
2154.958
 20
115.689
 10
2156.558
 20
115.689
 10
2158.158
 20
115.289
 10
2159.358
 20
114.889
 10
2161.758
 20
113.289
 10
2162.958
 20
112.889
 10
2164.158
 20
111.689
 10
2166.558
 20
110.089
 10
2167.358
 20
108.889
 10
2168.358
 20
107.889
 10
2168.358
 20
151.489
  0
LWPOLYLINE
  5
8C
330
1F
100
AcDbEntity
  8
text2
100
AcDbPolyline
 90
       51
 70
     1
 43
0.0
 10
2168.358
 20
90.289
 10
2166.558
 20
90.489
 10
2163.358
 20
90.889
 10
2156.958
 20
92.089
 10
2149.758
 20
93.68900000000001
 10
2142.958
 20
96.089
 10
2136.558
 20
98.889
 10
2130.958
 20
102.089
 10
2125.758
 20
105.689
 10
2120.958
 20
109.289
 10
2117.358
 20
113.289
 10
2114.158
 20
117.689
 10
2111.758
 20
121.689
 10
2110.558
 20
126.489
 10
2110.158
 20
130.889
 10
2110.558
 20
134.489
 10
2111.358
 20
138.489
 10
2112.158
 20
140.489
 10
2112.958
 20
142.089
 10
2116.558
 20
146.889
 10
2118.158
 20
148.089
 10
2120.158
 20
149.289
 10
2121.758
 20
150.489
 10
2126.558
 20
152.889
 10
2123.358
 20
151.689
 10
2117.758
 20
149.289
 10
2114.958
 20
147.689
 10
2112.558
 20
145.689
 10
2110.158
 20
144.089
 10
2106.158
 20
140.089
 10
2104.558
 20
138.089
 10
2103.358
 20
135.689
 10
2102.558
 20
133.689
 10
2101.758
 20
131.289
 10
2101.358
 20
127.289
 10
2101.758
 20
122.889
 10
2103.358
 20
118.489
 10
2105.358
 20
114.089
 10
2108.558
 20
109.689
 10
2112.158
 20
105.689
 10
2116.958
 20
102.089
 10
2122.158
 20
98.489
 10
2127.758
 20
95.289
 10
2134.158
 20
92.889
 10
2140.958
 20
90.489
 10
2148.158
 20
88.489
 10
2154.558
 20
87.289
 10
2158.958
 20
86.889
 10
2162.958
 20
86.489
 10
2168.358
 20
86.489
 10
2168.358
 20
90.289
  0
LWPOLYLINE
  5
8D
330
1F
100
AcDbEntity
  8
text2
100
AcDbPolyline
 90
       64
 70
     1
 43
0.0
 10
2269.758
 20
121.689
 10
2270.158
 20
118.489
 10
2270.158
 20
112.889
 10
2268.158
 20
106.489
 10
2264.958
 20
100.489
 10
2260.558
 20
94.889
 10
2254.958
 20
89.68900000000001
 10
2248.158
 20
84.489
 10
2240.158
 20
80.489
 10
2231.358
 20
76.489
 10
2221.758
 20
73.289
 10
2211.358
 20
70.889
 10
2200.558
 20
69.289
 10
2188.958
 20
68.089
 10
2178.958
 20
68.089
 10
2159.758
 20
69.289
 10
2141.758
 20
72.889
 10
2136.158
 20
74.489
 10
2130.958
 20
76.089
 10
2125.758
 20
78.089
 10
2120.958
 20
80.089
 10
2112.158
 20
84.489
 10
2116.158
 20
82.889
 10
2119.758
 20
81.289
 10
2123.758
 20
79.68900000000001
 10
2128.158
 20
78.089
 10
2132.158
 20
76.889
 10
2136.558
 20
76.089
 10
2141.358
 20
74.889
 10
2145.758
 20
74.089
 10
2150.558
 20
73.68900000000001
 10
2160.958
 20
72.889
 10
2176.158
 20
72.889
 10
2187.758
 20
74.089
 10
2198.558
 20
75.68900000000001
 10
2208.958
 20
78.089
 10
2218.558
 20
81.289
 10
2227.358
 20
85.289
 10
2235.358
 20
89.289
 10
2242.158
 20
94.089
 10
2247.758
 20
99.68900000000001
 10
2252.158
 20
105.289
 10
2255.358
 20
111.289
 10
2257.358
 20
117.689
 10
2257.758
 20
122.889
 10
2257.358
 20
126.089
 10
2256.558
 20
131.689
 10
2255.758
 20
134.489
 10
2254.558
 20
137.289
 10
2252.958
 20
140.089
 10
2251.358
 20
142.489
 10
2247.358
 20
147.289
 10
2244.558
 20
149.689
 10
2241.758
 20
151.689
 10
2238.558
 20
154.089
 10
2242.558
 20
151.689
 10
2246.958
 20
149.289
 10
2250.558
 20
146.889
 10
2257.758
 20
141.289
 10
2263.358
 20
134.889
 10
2265.758
 20
132.089
 10
2267.358
 20
128.489
 10
2268.958
 20
125.289
 10
2269.758
 20
121.689
  0
LWPOLYLINE
  5
8E
330
1F
100
AcDbEntity
  8
text2
100
AcDbPolyline
 90
       11
 70
     1
 43
0.0
 10
2494.17
 20
127.945
 10
2497.742
 20
127.945
 10
2497.742
 20
124.372
 10
2487.028
 20
124.372
 10
2487.028
 20
127.945
 10
2490.6
 20
127.945
 10
2490.6
 20
145.8
 10
2487.028
 20
145.8
 10
2490.6
 20
149.372
 10
2494.17
 20
149.372
 10
2494.17
 20
127.945
  0
LWPOLYLINE
  5
8F
330
1F
100
AcDbEntity
  8
text2
100
AcDbPolyline
 90
       27
 70
     1
 43
0.0
 10
2623.5
 20
181.6
 10
2624.2
 20
177.0
 10
2624.2
 20
64.7
 10
2505.7
 20
64.7
 10
2501.1
 20
65.4
 10
2496.2
 20
67.9
 10
2492.3
 20
71.8
 10
2489.7
 20
76.8
 10
2488.9
 20
82.2
 10
2489.8
 20
87.60000000000001
 10
2492.3
 20
92.60000000000001
 10
2496.2
 20
96.5
 10
2501.1
 20
99.0
 10
2505.7
 20
99.7
 10
2514.0
 20
99.7
 10
2514.0
 20
168.6
 10
2589.2
 20
168.6
 10
2589.2
 20
177.0
 10
2589.9
 20
181.6
 10
2592.4
 20
186.5
 10
2596.3
 20
190.4
 10
2601.3
 20
193.0
 10
2606.7
 20
193.8
 10
2612.1
 20
192.9
 10
2617.1
 20
190.4
 10
2621.0
 20
186.5
 10
2623.5
 20
181.6
  0
LWPOLYLINE
  5
90
330
1F
100
AcDbEntity
  8
text2
100
AcDbPolyline
 90
        9
 70
     1
 43
0.0
 10
2790.53
 20
253.285
 10
2790.53
 20
303.285
 10
2819.1
 20
303.285
 10
2826.24
 20
296.14
 10
2826.24
 20
281.855
 10
2819.1
 20
274.715
 10
2797.67
 20
274.715
 10
2797.67
 20
253.285
 10
2790.53
 20
253.285
  0
LWPOLYLINE
  5
91
330
1F
100
AcDbEntity
  8
text2
100
AcDbPolyline
 90
        7
 70
     1
 43
0.0
 10
2777.388
 20
222.71
 10
2791.673
 20
222.71
 10
2791.673
 20
219.137
 10
2773.818
 20
219.137
 10
2773.818
 20
244.137
 10
2777.388
 20
244.137
 10
2777.388
 20
222.71
  0
LWPOLYLINE
  5
92
330
1F
100
AcDbEntity
  8
text2
100
AcDbPolyline
 90
        9
 70
     1
 43
0.0
 10
2798.817
 20
222.71
 10
2798.817
 20
240.565
 10
2802.388
 20
244.137
 10
2813.102
 20
244.137
 10
2816.672
 20
240.565
 10
2816.672
 20
222.71
 10
2813.102
 20
219.137
 10
2802.388
 20
219.137
 10
2798.817
 20
222.71
  0
LWPOLYLINE
  5
93
330
1F
100
AcDbEntity
  8
text2
100
AcDbPolyline
 90
        4
 70
     1
 43
0.0
 10
2839.0
 20
907.2
 10
2839.0
 20
1002.2
 10
2934.0
 20
1002.2
 10
2934.0
 20
907.2
  0
LWPOLYLINE
  5
94
330
1F
100
AcDbEntity
  8
text2
100
AcDbPolyline
 90
        4
 70
     1
 43
0.0
 10
2839.0
 20
1057.2
 10
2839.0
 20
1152.2
 10
2934.0
 20
1152.2
 10
2934.0
 20
1057.2
  0
LWPOLYLINE
  5
95
330
1F
100
AcDbEntity
  8
text2
100
AcDbPolyline
 90
        4
 70
     1
 43
0.0
 10
2839.0
 20
1207.2
 10
2839.0
 20
1302.2
 10
2934.0
 20
1302.2
 10
2934.0
 20
1207.2
  0
LWPOLYLINE
  5
96
330
1F
100
AcDbEntity
  8
text2
100
AcDbPolyline
 90
        4
 70
     1
 43
0.0
 10
2839.0
 20
1357.2
 10
2839.0
 20
1452.2
 10
2934.0
 20
1452.2
 10
2934.0
 20
1357.2
  0
LWPOLYLINE
  5
97
330
1F
100
AcDbEntity
  8
text2
100
AcDbPolyline
 90
        4
 70
     1
 43
0.0
 10
2839.0
 20
1507.2
 10
2839.0
 20
1602.2
 10
2934.0
 20
1602.2
 10
2934.0
 20
1507.2
  0
LWPOLYLINE
  5
98
330
1F
100
AcDbEntity
  8
text2
100
AcDbPolyline
 90
        4
 70
     1
 43
0.0
 10
2839.0
 20
1657.2
 10
2839.0
 20
1752.2
 10
2934.0
 20
1752.2
 10
2934.0
 20
1657.2
  0
LWPOLYLINE
  5
99
330
1F
100
AcDbEntity
  8
text2
100
AcDbPolyline
 90
        4
 70
     1
 43
0.0
 10
2839.0
 20
1807.2
 10
2839.0
 20
1902.2
 10
2934.0
 20
1902.2
 10
2934.0
 20
1807.2
  0
LWPOLYLINE
  5
9A
330
1F
100
AcDbEntity
  8
text2
100
AcDbPolyline
 90
        4
 70
     1
 43
0.0
 10
2839.0
 20
1957.2
 10
2839.0
 20
2052.2
 10
2938.9
 20
2052.2
 10
2938.9
 20
1957.2
  0
LWPOLYLINE
  5
9B
330
1F
100
AcDbEntity
  8
text2
100
AcDbPolyline
 90
        4
 70
     1
 43
0.0
 10
2839.0
 20
2107.2
 10
2839.0
 20
2202.2
 10
2938.9
 20
2202.2
 10
2938.9
 20
2107.2
  0
LWPOLYLINE
  5
9C
330
1F
100
AcDbEntity
  8
text2
100
AcDbPolyline
 90
        4
 70
     1
 43
0.0
 10
2839.0
 20
2257.2
 10
2839.0
 20
2352.2
 10
2938.9
 20
2352.2
 10
2938.9
 20
2257.2
  0
LWPOLYLINE
  5
9D
330
1F
100
AcDbEntity
  8
text2
100
AcDbPolyline
 90
        4
 70
     1
 43
0.0
 10
2839.0
 20
2407.2
 10
2839.0
 20
2502.2
 10
2938.9
 20
2502.2
 10
2938.9
 20
2407.2
  0
LWPOLYLINE
  5
9E
330
1F
100
AcDbEntity
  8
text2
100
AcDbPolyline
 90
        4
 70
     1
 43
0.0
 10
2839.0
 20
2557.2
 10
2839.0
 20
2652.2
 10
2938.9
 20
2652.2
 10
2938.9
 20
2557.2
  0
LWPOLYLINE
  5
9F
330
1F
100
AcDbEntity
  8
text2
100
AcDbPolyline
 90
        4
 70
     1
 43
0.0
 10
2839.0
 20
2707.2
 10
2839.0
 20
2802.2
 10
2938.9
 20
2802.2
 10
2938.9
 20
2707.2
  0
LWPOLYLINE
  5
A0
330
1F
100
AcDbEntity
  8
text2
100
AcDbPolyline
 90
       13
 70
     1
 43
0.0
 10
2852.388
 20
219.137
 10
2852.388
 20
222.71
 10
2855.96
 20
222.71
 10
2855.96
 20
240.565
 10
2852.388
 20
240.565
 10
2852.388
 20
244.137
 10
2863.102
 20
244.137
 10
2863.102
 20
240.565
 10
2859.53
 20
240.565
 10
2859.53
 20
222.71
 10
2863.102
 20
222.71
 10
2863.102
 20
219.137
 10
2852.388
 20
219.137
  0
LWPOLYLINE
  5
A1
330
1F
100
AcDbEntity
  8
text2
100
AcDbPolyline
 90
       11
 70
     1
 43
0.0
 10
2873.817
 20
219.137
 10
2873.817
 20
244.137
 10
2879.173
 20
244.137
 10
2888.102
 20
224.494
 10
2888.102
 20
244.137
 10
2891.673
 20
244.137
 10
2891.673
 20
219.137
 10
2886.317
 20
219.137
 10
2877.388
 20
238.78
 10
2877.388
 20
219.137
 10
2873.817
 20
219.137
  0
LWPOLYLINE
  5
A2
330
1F
100
AcDbEntity
  8
text2
100
AcDbPolyline
 90
       26
 70
     1
 43
0.0
 10
2869.1
 20
303.285
 10
2876.24
 20
296.14
 10
2876.24
 20
285.43
 10
2869.1
 20
278.285
 10
2876.24
 20
271.14
 10
2876.24
 20
260.43
 10
2869.1
 20
253.285
 10
2847.67
 20
253.285
 10
2840.53
 20
260.43
 10
2847.67
 20
264.0
 10
2851.24
 20
260.43
 10
2865.53
 20
260.43
 10
2869.1
 20
264.0
 10
2869.1
 20
267.57
 10
2861.955
 20
274.715
 10
2854.815
 20
274.715
 10
2854.815
 20
281.855
 10
2861.955
 20
281.855
 10
2869.1
 20
289.0
 10
2869.1
 20
292.57
 10
2865.53
 20
296.14
 10
2851.24
 20
296.14
 10
2847.67
 20
292.57
 10
2840.53
 20
296.14
 10
2847.67
 20
303.285
 10
2869.1
 20
303.285
  0
LWPOLYLINE
  5
A3
330
1F
100
AcDbEntity
  8
text2
100
AcDbPolyline
 90
        2
 70
     0
 43
0.0
 10
643.2
 20
162.0
 10
643.2
 20
158.0
  0
LWPOLYLINE
  5
A4
330
1F
100
AcDbEntity
  8
text2
100
AcDbPolyline
 90
       26
 70
     1
 43
0.0
 10
133.9
 20
2869.2
 10
133.9
 20
2878.5
 10
98.7
 20
2901.0
 10
89.5
 20
2901.0
 10
85.10000000000001
 20
2901.7
 10
80.4
 20
2904.1
 10
76.8
 20
2907.7
 10
74.4
 20
2912.4
 10
73.60000000000001
 20
2917.5
 10
74.4
 20
2922.6
 10
76.8
 20
2927.3
 10
80.4
 20
2930.9
 10
85.10000000000001
 20
2933.3
 10
89.5
 20
2934.0
 10
166.9
 20
2934.0
 10
166.9
 20
2869.2
 10
166.2
 20
2864.8
 10
163.8
 20
2860.1
 10
160.2
 20
2856.5
 10
155.5
 20
2854.1
 10
150.4
 20
2853.3
 10
145.3
 20
2854.1
 10
140.6
 20
2856.5
 10
137.0
 20
2860.1
 10
134.6
 20
2864.8
 10
133.9
 20
2869.2
  0
LWPOLYLINE
  5
A5
330
1F
100
AcDbEntity
  8
text2
100
AcDbPolyline
 90
        9
 70
     1
 43
0.0
 10
220.4
 20
2825.7
 10
220.4
 20
2835.2
 10
207.9
 20
2865.2
 10
207.9
 20
2934.0
 10
265.9
 20
2934.0
 10
265.9
 20
2865.2
 10
253.4
 20
2835.2
 10
253.4
 20
2825.7
 10
220.4
 20
2825.7
  0
LWPOLYLINE
  5
A6
330
1F
100
AcDbEntity
  8
text2
100
AcDbPolyline
 90
       26
 70
     1
 43
0.0
 10
306.9
 20
2869.2
 10
306.9
 20
2934.0
 10
384.3
 20
2934.0
 10
388.7
 20
2933.3
 10
393.4
 20
2930.9
 10
397.0
 20
2927.3
 10
399.4
 20
2922.6
 10
400.2
 20
2917.5
 10
399.4
 20
2912.4
 10
397.0
 20
2907.7
 10
393.4
 20
2904.1
 10
388.7
 20
2901.7
 10
384.3
 20
2901.0
 10
375.1
 20
2901.0
 10
339.9
 20
2878.5
 10
339.9
 20
2869.2
 10
339.2
 20
2864.8
 10
336.8
 20
2860.1
 10
333.2
 20
2856.5
 10
328.5
 20
2854.1
 10
323.4
 20
2853.3
 10
318.3
 20
2854.1
 10
313.6
 20
2856.5
 10
310.0
 20
2860.1
 10
307.6
 20
2864.8
 10
306.9
 20
2869.2
  0
LWPOLYLINE
  5
A7
330
1F
100
AcDbEntity
  8
text2
100
AcDbPolyline
 90
       11
 70
     1
 43
0.0
 10
367.1
 20
2856.186
 10
370.672
 20
2856.186
 10
370.672
 20
2852.613
 10
359.958
 20
2852.613
 10
359.958
 20
2856.186
 10
363.53
 20
2856.186
 10
363.53
 20
2874.041
 10
359.958
 20
2874.041
 10
363.53
 20
2877.613
 10
367.1
 20
2877.613
 10
367.1
 20
2856.186
  0
LWPOLYLINE
  5
A8
330
1F
100
AcDbEntity
  8
text2
100
AcDbPolyline
 90
        9
 70
     1
 43
0.0
 10
2838.66
 20
709.73
 10
2838.66
 20
759.73
 10
2867.23
 20
759.73
 10
2874.37
 20
752.585
 10
2874.37
 20
738.3000000000001
 10
2867.23
 20
731.16
 10
2845.8
 20
731.16
 10
2845.8
 20
709.73
 10
2838.66
 20
709.73
  0
LWPOLYLINE
  5
A9
330
1F
100
AcDbEntity
  8
text2
100
AcDbPolyline
 90
       16
 70
     1
 43
0.0
 10
2888.66
 20
709.73
 10
2888.66
 20
720.445
 10
2917.23
 20
741.875
 10
2917.23
 20
749.015
 10
2913.66
 20
752.585
 10
2899.37
 20
752.585
 10
2895.8
 20
749.015
 10
2888.66
 20
752.585
 10
2895.8
 20
759.73
 10
2917.23
 20
759.73
 10
2924.37
 20
752.585
 10
2924.37
 20
738.3000000000001
 10
2895.8
 20
716.875
 10
2924.37
 20
716.875
 10
2924.37
 20
709.73
 10
2888.66
 20
709.73
  0
LWPOLYLINE
  5
AA
330
1F
100
AcDbEntity
  8
text2
100
AcDbPolyline
 90
       11
 70
     1
 43
0.0
 10
2916.142
 20
867.573
 10
2919.714
 20
867.573
 10
2919.714
 20
864.0
 10
2909.0
 20
864.0
 10
2909.0
 20
867.573
 10
2912.572
 20
867.573
 10
2912.572
 20
885.428
 10
2909.0
 20
885.428
 10
2912.572
 20
889.0
 10
2916.142
 20
889.0
 10
2916.142
 20
867.573
  0
LWPOLYLINE
  5
AB
330
1F
100
AcDbEntity
  8
text2
100
AcDbPolyline
 90
        4
 70
     1
 43
0.0
 10
0.0
 20
0.0
 10
0.0
 20
3000.0
 10
3000.0
 20
3000.0
 10
3000.0
 20
0.0
  0
LWPOLYLINE
  5
AC
330
1F
100
AcDbEntity
  8
text2
100
AcDbPolyline
 90
       11
 70
     1
 43
0.0
 10
124.456
 20
73.959
 10
128.028
 20
73.959
 10
128.028
 20
70.386
 10
117.314
 20
70.386
 10
117.314
 20
73.959
 10
120.886
 20
73.959
 10
120.886
 20
91.81400000000001
 10
117.314
 20
91.81400000000001
 10
120.886
 20
95.386
 10
124.456
 20
95.386
 10
124.456
 20
73.959
  0
LWPOLYLINE
  5
AD
330
1F
100
AcDbEntity
  8
text2
100
AcDbPolyline
 90
        4
 70
     1
 43
0.0
 10
144.7
 20
65.0
 10
144.7
 20
162.0
 10
241.7
 20
162.0
 10
241.7
 20
65.0
  0
LWPOLYLINE
  5
AE
330
1F
100
AcDbEntity
  8
text2
100
AcDbPolyline
 90
       27
 70
     1
 43
0.0
 10
2762.9
 20
181.9
 10
2762.2
 20
177.3
 10
2762.2
 20
65.0
 10
2880.7
 20
65.0
 10
2885.3
 20
65.7
 10
2890.2
 20
68.2
 10
2894.1
 20
72.10000000000001
 10
2896.7
 20
77.10000000000001
 10
2897.5
 20
82.5
 10
2896.6
 20
87.9
 10
2894.1
 20
92.9
 10
2890.2
 20
96.8
 10
2885.3
 20
99.3
 10
2880.7
 20
100.0
 10
2872.4
 20
100.0
 10
2872.4
 20
168.9
 10
2797.2
 20
168.9
 10
2797.2
 20
177.3
 10
2796.5
 20
181.9
 10
2794.0
 20
186.8
 10
2790.1
 20
190.7
 10
2785.1
 20
193.3
 10
2779.7
 20
194.1
 10
2774.3
 20
193.2
 10
2769.3
 20
190.7
 10
2765.4
 20
186.8
 10
2762.9
 20
181.9
  0
ENDSEC
  0
SECTION
  2
OBJECTS
  0
DICTIONARY
  5
C
330
0
100
AcDbDictionary
281
     1
  3
ACAD_GROUP
350
D
  3
ACAD_LAYOUT
350
1A
  3
ACAD_MLEADERSTYLE
350
B0
  3
ACAD_MLINESTYLE
350
17
  3
ACAD_PLOTSETTINGS
350
19
  3
ACAD_PLOTSTYLENAME
350
E
  3
ACAD_SCALELIST
350
3B
  3
ACAD_TABLESTYLE
350
AF
  3
ACAD_VISUALSTYLE
350
2A
  0
DICTIONARY
  5
D
102
{ACAD_REACTORS
330
C
102
}
330
C
100
AcDbDictionary
281
     1
  0
DICTIONARY
  5
1A
102
{ACAD_REACTORS
330
C
102
}
330
C
100
AcDbDictionary
281
     1
  3
Layout1
350
1E
  3
Layout2
350
26
  3
Model
350
22
  0
DICTIONARY
  5
B0
102
{ACAD_REACTORS
330
C
102
}
330
C
100
AcDbDictionary
281
     1
  0
DICTIONARY
  5
17
102
{ACAD_REACTORS
330
C
102
}
330
C
100
AcDbDictionary
281
     1
  3
Standard
350
18
  0
DICTIONARY
  5
19
102
{ACAD_REACTORS
330
C
102
}
330
C
100
AcDbDictionary
281
     1
  0
ACDBDICTIONARYWDFLT
  5
E
102
{ACAD_REACTORS
330
C
102
}
330
C
100
AcDbDictionary
281
     1
  3
Normal
350
F
100
AcDbDictionaryWithDefault
340
F
  0
DICTIONARY
  5
3B
102
{ACAD_REACTORS
330
C
102
}
330
C
100
AcDbDictionary
281
     1
  3
A0
350
3C
  3
A1
350
3D
  3
A2
350
3E
  3
A3
350
3F
  3
A4
350
40
  3
A5
350
41
  3
A6
350
42
  3
A7
350
43
  3
A8
350
44
  3
A9
350
45
  3
B0
350
46
  3
B1
350
47
  3
B2
350
48
  3
B3
350
49
  3
B4
350
4A
  3
B5
350
4B
  3
B6
350
4C
  3
B7
350
4D
  3
B8
350
4E
  3
B9
350
4F
  3
C0
350
50
  3
C1
350
51
  3
C2
350
52
  3
C3
350
53
  3
C4
350
54
  3
C5
350
55
  3
C6
350
56
  3
C7
350
57
  3
C8
350
58
  3
C9
350
59
  3
D0
350
5A
  3
D1
350
5B
  3
D2
350
5C
  0
DICTIONARY
  5
AF
102
{ACAD_REACTORS
330
C
102
}
330
C
100
AcDbDictionary
281
     1
  0
DICTIONARY
  5
2A
102
{ACAD_REACTORS
330
C
102
}
330
C
100
AcDbDictionary
281
     1
  3
2dWireframe
350
2F
  3
3D Hidden
350
31
  3
3dWireframe
350
30
  3
Basic
350
32
  3
Brighten
350
36
  3
ColorChange
350
3A
  3
Conceptual
350
34
  3
Dim
350
35
  3
Facepattern
350
39
  3
Flat
350
2B
  3
FlatWithEdges
350
2C
  3
Gouraud
350
2D
  3
GouraudWithEdges
350
2E
  3
Linepattern
350
38
  3
Realistic
350
33
  3
Thicken
350
37
  0
LAYOUT
  5
1E
102
{ACAD_REACTORS
330
1A
102
}
330
1A
100
AcDbPlotSettings
  1

  2
none_device
  4

  6

 40
0.0
 41
0.0
 42
0.0
 43
0.0
 44
0.0
 45
0.0
 46
0.0
 47
0.0
 48
0.0
 49
0.0
140
0.0
141
0.0
142
1.0
143
1.0
 70
   688
 72
     0
 73
     0
 74
     5
  7

 75
    16
 76
     0
 77
     2
 78
   300
147
1.0
148
0.0
149
0.0
100
AcDbLayout
  1
Layout1
 70
     1
 71
     1
 10
0.0
 20
0.0
 11
12.0
 21
9.0
 12
0.0
 22
0.0
 32
0.0
 14
1.000000000000000E+20
 24
1.000000000000000E+20
 34
1.000000000000000E+20
 15
-1.000000000000000E+20
 25
-1.000000000000000E+20
 35
-1.000000000000000E+20
146
0.0
 13
0.0
 23
0.0
 33
0.0
 16
1.0
 26
0.0
 36
0.0
 17
0.0
 27
1.0
 37
0.0
 76
     0
330
1B
  0
LAYOUT
  5
26
102
{ACAD_REACTORS
330
1A
102
}
330
1A
100
AcDbPlotSettings
  1

  2
none_device
  4

  6

 40
0.0
 41
0.0
 42
0.0
 43
0.0
 44
0.0
 45
0.0
 46
0.0
 47
0.0
 48
0.0
 49
0.0
140
0.0
141
0.0
142
1.0
143
1.0
 70
   688
 72
     0
 73
     0
 74
     5
  7

 75
    16
 76
     0
 77
     2
 78
   300
147
1.0
148
0.0
149
0.0
100
AcDbLayout
  1
Layout2
 70
     1
 71
     2
 10
0.0
 20
0.0
 11
0.0
 21
0.0
 12
0.0
 22
0.0
 32
0.0
 14
0.0
 24
0.0
 34
0.0
 15
0.0
 25
0.0
 35
0.0
146
0.0
 13
0.0
 23
0.0
 33
0.0
 16
1.0
 26
0.0
 36
0.0
 17
0.0
 27
1.0
 37
0.0
 76
     0
330
23
  0
LAYOUT
  5
22
102
{ACAD_REACTORS
330
1A
102
}
330
1A
100
AcDbPlotSettings
  1

  2
none_device
  4

  6

 40
0.0
 41
0.0
 42
0.0
 43
0.0
 44
0.0
 45
0.0
 46
0.0
 47
0.0
 48
0.0
 49
0.0
140
0.0
141
0.0
142
1.0
143
1.0
 70
  1712
 72
     0
 73
     0
 74
     0
  7

 75
     0
 76
     0
 77
     2
 78
   300
147
1.0
148
0.0
149
0.0
100
AcDbLayout
  1
Model
 70
     1
 71
     0
 10
0.0
 20
0.0
 11
12.0
 21
9.0
 12
0.0
 22
0.0
 32
0.0
 14
1.000000000000000E+20
 24
1.000000000000000E+20
 34
1.000000000000000E+20
 15
-1.000000000000000E+20
 25
-1.000000000000000E+20
 35
-1.000000000000000E+20
146
0.0
 13
0.0
 23
0.0
 33
0.0
 16
1.0
 26
0.0
 36
0.0
 17
0.0
 27
1.0
 37
0.0
 76
     0
330
1F
331
29
  0
MLINESTYLE
  5
18
102
{ACAD_REACTORS
330
17
102
}
330
17
100
AcDbMlineStyle
  2
Standard
 70
     0
  3

 62
   256
 51
90.0
 52
90.0
 71
     2
 49
0.5
 62
   256
  6
BYLAYER
 49
-0.5
 62
   256
  6
BYLAYER
  0
ACDBPLACEHOLDER
  5
F
102
{ACAD_REACTORS
330
E
102
}
330
E
  0
SCALE
  5
3C
102
{ACAD_REACTORS
330
3B
102
}
330
3B
100
AcDbScale
 70
     0
300
1:1
140
1.0
141
1.0
290
     1
  0
SCALE
  5
3D
102
{ACAD_REACTORS
330
3B
102
}
330
3B
100
AcDbScale
 70
     0
300
1:2
140
1.0
141
2.0
290
     0
  0
SCALE
  5
3E
102
{ACAD_REACTORS
330
3B
102
}
330
3B
100
AcDbScale
 70
     0
300
1:4
140
1.0
141
4.0
290
     0
  0
SCALE
  5
3F
102
{ACAD_REACTORS
330
3B
102
}
330
3B
100
AcDbScale
 70
     0
300
1:5
140
1.0
141
5.0
290
     0
  0
SCALE
  5
40
102
{ACAD_REACTORS
330
3B
102
}
330
3B
100
AcDbScale
 70
     0
300
1:8
140
1.0
141
8.0
290
     0
  0
SCALE
  5
41
102
{ACAD_REACTORS
330
3B
102
}
330
3B
100
AcDbScale
 70
     0
300
1:10
140
1.0
141
10.0
290
     0
  0
SCALE
  5
42
102
{ACAD_REACTORS
330
3B
102
}
330
3B
100
AcDbScale
 70
     0
300
1:16
140
1.0
141
16.0
290
     0
  0
SCALE
  5
43
102
{ACAD_REACTORS
330
3B
102
}
330
3B
100
AcDbScale
 70
     0
300
1:20
140
1.0
141
20.0
290
     0
  0
SCALE
  5
44
102
{ACAD_REACTORS
330
3B
102
}
330
3B
100
AcDbScale
 70
     0
300
1:30
140
1.0
141
30.0
290
     0
  0
SCALE
  5
45
102
{ACAD_REACTORS
330
3B
102
}
330
3B
100
AcDbScale
 70
     0
300
1:40
140
1.0
141
40.0
290
     0
  0
SCALE
  5
46
102
{ACAD_REACTORS
330
3B
102
}
330
3B
100
AcDbScale
 70
     0
300
1:50
140
1.0
141
50.0
290
     0
  0
SCALE
  5
47
102
{ACAD_REACTORS
330
3B
102
}
330
3B
100
AcDbScale
 70
     0
300
1:100
140
1.0
141
100.0
290
     0
  0
SCALE
  5
48
102
{ACAD_REACTORS
330
3B
102
}
330
3B
100
AcDbScale
 70
     0
300
2:1
140
2.0
141
1.0
290
     0
  0
SCALE
  5
49
102
{ACAD_REACTORS
330
3B
102
}
330
3B
100
AcDbScale
 70
     0
300
4:1
140
4.0
141
1.0
290
     0
  0
SCALE
  5
4A
102
{ACAD_REACTORS
330
3B
102
}
330
3B
100
AcDbScale
 70
     0
300
8:1
140
8.0
141
1.0
290
     0
  0
SCALE
  5
4B
102
{ACAD_REACTORS
330
3B
102
}
330
3B
100
AcDbScale
 70
     0
300
10:1
140
10.0
141
1.0
290
     0
  0
SCALE
  5
4C
102
{ACAD_REACTORS
330
3B
102
}
330
3B
100
AcDbScale
 70
     0
300
100:1
140
100.0
141
1.0
290
     0
  0
SCALE
  5
4D
102
{ACAD_REACTORS
330
3B
102
}
330
3B
100
AcDbScale
 70
     0
300
1/128" = 1'-0"
140
0.0078125
141
12.0
290
     0
  0
SCALE
  5
4E
102
{ACAD_REACTORS
330
3B
102
}
330
3B
100
AcDbScale
 70
     0
300
1/64" = 1'-0"
140
0.015625
141
12.0
290
     0
  0
SCALE
  5
4F
102
{ACAD_REACTORS
330
3B
102
}
330
3B
100
AcDbScale
 70
     0
300
1/32" = 1'-0"
140
0.03125
141
12.0
290
     0
  0
SCALE
  5
50
102
{ACAD_REACTORS
330
3B
102
}
330
3B
100
AcDbScale
 70
     0
300
1/16" = 1'-0"
140
0.0625
141
12.0
290
     0
  0
SCALE
  5
51
102
{ACAD_REACTORS
330
3B
102
}
330
3B
100
AcDbScale
 70
     0
300
3/32" = 1'-0"
140
0.09375
141
12.0
290
     0
  0
SCALE
  5
52
102
{ACAD_REACTORS
330
3B
102
}
330
3B
100
AcDbScale
 70
     0
300
1/8" = 1'-0"
140
0.125
141
12.0
290
     0
  0
SCALE
  5
53
102
{ACAD_REACTORS
330
3B
102
}
330
3B
100
AcDbScale
 70
     0
300
3/16" = 1'-0"
140
0.1875
141
12.0
290
     0
  0
SCALE
  5
54
102
{ACAD_REACTORS
330
3B
102
}
330
3B
100
AcDbScale
 70
     0
300
1/4" = 1'-0"
140
0.25
141
12.0
290
     0
  0
SCALE
  5
55
102
{ACAD_REACTORS
330
3B
102
}
330
3B
100
AcDbScale
 70
     0
300
3/8" = 1'-0"
140
0.375
141
12.0
290
     0
  0
SCALE
  5
56
102
{ACAD_REACTORS
330
3B
102
}
330
3B
100
AcDbScale
 70
     0
300
1/2" = 1'-0"
140
0.5
141
12.0
290
     0
  0
SCALE
  5
57
102
{ACAD_REACTORS
330
3B
102
}
330
3B
100
AcDbScale
 70
     0
300
3/4" = 1'-0"
140
0.75
141
12.0
290
     0
  0
SCALE
  5
58
102
{ACAD_REACTORS
330
3B
102
}
330
3B
100
AcDbScale
 70
     0
300
1" = 1'-0"
140
1.0
141
12.0
290
     0
  0
SCALE
  5
59
102
{ACAD_REACTORS
330
3B
102
}
330
3B
100
AcDbScale
 70
     0
300
1-1/2" = 1'-0"
140
1.5
141
12.0
290
     0
  0
SCALE
  5
5A
102
{ACAD_REACTORS
330
3B
102
}
330
3B
100
AcDbScale
 70
     0
300
3" = 1'-0"
140
3.0
141
12.0
290
     0
  0
SCALE
  5
5B
102
{ACAD_REACTORS
330
3B
102
}
330
3B
100
AcDbScale
 70
     0
300
6" = 1'-0"
140
6.0
141
12.0
290
     0
  0
SCALE
  5
5C
102
{ACAD_REACTORS
330
3B
102
}
330
3B
100
AcDbScale
 70
     0
300
1'-0" = 1'-0"
140
12.0
141
12.0
290
     0
  0
VISUALSTYLE
  5
2F
102
{ACAD_REACTORS
330
2A
102
}
330
2A
100
AcDbVisualStyle
  2
2dWireframe
 70
     4
 71
     0
 72
     2
 73
     0
 90
        0
 40
-0.6
 41
-30.0
 62
     5
 63
     7
421
 16777215
 74
     1
 91
        4
 64
     7
 65
   257
 75
     1
175
     1
 42
1.0
 92
        0
 66
   257
 43
1.0
 76
     1
 77
     6
 78
     2
 67
     7
 79
     5
170
     0
171
     0
290
     0
174
     0
 93
        1
 44
0.0
173
     0
291
     0
 45
0.0
1001
ACAD
1000
AcDbSavedByObjectVersion
1070
     0
  0
VISUALSTYLE
  5
31
102
{ACAD_REACTORS
330
2A
102
}
330
2A
100
AcDbVisualStyle
  2
3D Hidden
 70
     6
 71
     1
 72
     2
 73
     2
 90
        0
 40
-0.6
 41
-30.0
 62
     5
 63
     7
421
 16777215
 74
     2
 91
        2
 64
     7
 65
   257
 75
     2
175
     1
 42
40.0
 92
        0
 66
   257
 43
1.0
 76
     1
 77
     6
 78
     2
 67
     7
 79
     3
170
     0
171
     0
290
     0
174
     0
 93
        1
 44
0.0
173
     0
291
     0
 45
0.0
1001
ACAD
1000
AcDbSavedByObjectVersion
1070
     0
  0
VISUALSTYLE
  5
30
102
{ACAD_REACTORS
330
2A
102
}
330
2A
100
AcDbVisualStyle
  2
3dWireframe
 70
     5
 71
     0
 72
     2
 73
     0
 90
        0
 40
-0.6
 41
-30.0
 62
     5
 63
     7
421
 16777215
 74
     1
 91
        4
 64
     7
 65
   257
 75
     1
175
     1
 42
1.0
 92
        0
 66
   257
 43
1.0
 76
     1
 77
     6
 78
     2
 67
     7
 79
     5
170
     0
171
     0
290
     0
174
     0
 93
        1
 44
0.0
173
     0
291
     0
 45
0.0
1001
ACAD
1000
AcDbSavedByObjectVersion
1070
     0
  0
VISUALSTYLE
  5
32
102
{ACAD_REACTORS
330
2A
102
}
330
2A
100
AcDbVisualStyle
  2
Basic
 70
     7
 71
     1
 72
     0
 73
     1
 90
        0
 40
-0.6
 41
-30.0
 62
     5
 63
     7
421
 16777215
 74
     0
 91
        4
 64
     7
 65
   257
 75
     1
175
     1
 42
1.0
 92
        8
 66
     7
 43
1.0
 76
     1
 77
     6
 78
     2
 67
     7
 79
     5
170
     0
171
     0
290
     0
174
     0
 93
        1
 44
0.0
173
     0
291
     1
 45
0.0
1001
ACAD
1000
AcDbSavedByObjectVersion
1070
     0
  0
VISUALSTYLE
  5
36
102
{ACAD_REACTORS
330
2A
102
}
330
2A
100
AcDbVisualStyle
  2
Brighten
 70
    12
 71
     2
 72
     2
 73
     0
 90
        0
 40
-0.6
 41
-30.0
 62
     5
 63
     7
421
 16777215
 74
     1
 91
        4
 64
     7
 65
   257
 75
     1
175
     1
 42
1.0
 92
        8
 66
     7
 43
1.0
 76
     1
 77
     6
 78
     2
 67
     7
 79
     5
170
     0
171
     0
290
     0
174
     0
 93
        1
 44
50.0
173
     0
291
     1
 45
0.0
1001
ACAD
1000
AcDbSavedByObjectVersion
1070
     0
  0
VISUALSTYLE
  5
3A
102
{ACAD_REACTORS
330
2A
102
}
330
2A
100
AcDbVisualStyle
  2
ColorChange
 70
    16
 71
     2
 72
     2
 73
     3
 90
        0
 40
-0.6
 41
-30.0
 62
     5
 63
     8
421
  8421504
 74
     1
 91
        4
 64
     7
 65
   257
 75
     1
175
     1
 42
1.0
 92
        8
 66
     8
424
  8421504
 43
1.0
 76
     1
 77
     6
 78
     2
 67
     7
 79
     5
170
     0
171
     0
290
     0
174
     0
 93
        1
 44
0.0
173
     0
291
     1
 45
0.0
1001
ACAD
1000
AcDbSavedByObjectVersion
1070
     0
  0
VISUALSTYLE
  5
34
102
{ACAD_REACTORS
330
2A
102
}
330
2A
100
AcDbVisualStyle
  2
Conceptual
 70
     9
 71
     3
 72
     2
 73
     0
 90
        0
 40
-0.6
 41
-30.0
 62
     5
 63
     7
421
 16777215
 74
     2
 91
        2
 64
     7
 65
   257
 75
     1
175
     1
 42
40.0
 92
        8
 66
     7
 43
1.0
 76
     1
 77
     6
 78
     2
 67
     7
 79
     3
170
     0
171
     0
290
     0
174
     0
 93
        1
 44
0.0
173
     0
291
     0
 45
0.0
1001
ACAD
1000
AcDbSavedByObjectVersion
1070
     0
  0
VISUALSTYLE
  5
35
102
{ACAD_REACTORS
330
2A
102
}
330
2A
100
AcDbVisualStyle
  2
Dim
 70
    11
 71
     2
 72
     2
 73
     0
 90
        0
 40
-0.6
 41
-30.0
 62
     5
 63
     7
421
 16777215
 74
     1
 91
        4
 64
     7
 65
   257
 75
     1
175
     1
 42
1.0
 92
        8
 66
     7
 43
1.0
 76
     1
 77
     6
 78
     2
 67
     7
 79
     5
170
     0
171
     0
290
     0
174
     0
 93
        1
 44
-50.0
173
     0
291
     1
 45
0.0
1001
ACAD
1000
AcDbSavedByObjectVersion
1070
     0
  0
VISUALSTYLE
  5
39
102
{ACAD_REACTORS
330
2A
102
}
330
2A
100
AcDbVisualStyle
  2
Facepattern
 70
    15
 71
     2
 72
     2
 73
     0
 90
        0
 40
-0.6
 41
-30.0
 62
     5
 63
     7
421
 16777215
 74
     1
 91
        4
 64
     7
 65
   257
 75
     1
175
     1
 42
1.0
 92
        8
 66
     7
 43
1.0
 76
     1
 77
     6
 78
     2
 67
     7
 79
     5
170
     0
171
     0
290
     0
174
     0
 93
        1
 44
0.0
173
     0
291
     1
 45
0.0
1001
ACAD
1000
AcDbSavedByObjectVersion
1070
     0
  0
VISUALSTYLE
  5
2B
102
{ACAD_REACTORS
330
2A
102
}
330
2A
100
AcDbVisualStyle
  2
Flat
 70
     0
 71
     2
 72
     1
 73
     1
 90
        2
 40
-0.6
 41
30.0
 62
     5
 63
     7
421
 16777215
 74
     0
 91
        4
 64
     7
 65
   257
 75
     1
175
     1
 42
1.0
 92
        8
 66
     7
 43
1.0
 76
     1
 77
     6
 78
     2
 67
     7
 79
     5
170
     0
171
     0
290
     0
174
     0
 93
       13
 44
0.0
173
     0
291
     1
 45
0.0
1001
ACAD
1000
AcDbSavedByObjectVersion
1070
     0
  0
VISUALSTYLE
  5
2C
102
{ACAD_REACTORS
330
2A
102
}
330
2A
100
AcDbVisualStyle
  2
FlatWithEdges
 70
     1
 71
     2
 72
     1
 73
     1
 90
        2
 40
-0.6
 41
30.0
 62
     5
 63
     7
421
 16777215
 74
     1
 91
        4
 64
     7
 65
   257
 75
     1
175
     1
 42
1.0
 92
        0
 66
   257
 43
1.0
 76
     1
 77
     6
 78
     2
 67
     7
 79
     5
170
     0
171
     0
290
     0
174
     0
 93
       13
 44
0.0
173
     0
291
     1
 45
0.0
1001
ACAD
1000
AcDbSavedByObjectVersion
1070
     0
  0
VISUALSTYLE
  5
2D
102
{ACAD_REACTORS
330
2A
102
}
330
2A
100
AcDbVisualStyle
  2
Gouraud
 70
     2
 71
     2
 72
     2
 73
     1
 90
        2
 40
-0.6
 41
30.0
 62
     5
 63
     7
421
 16777215
 74
     0
 91
        4
 64
     7
 65
   257
 75
     1
175
     1
 42
1.0
 92
        0
 66
     7
 43
1.0
 76
     1
 77
     6
 78
     2
 67
     7
 79
     5
170
     0
171
     0
290
     0
174
     0
 93
       13
 44
0.0
173
     0
291
     1
 45
0.0
1001
ACAD
1000
AcDbSavedByObjectVersion
1070
     0
  0
VISUALSTYLE
  5
2E
102
{ACAD_REACTORS
330
2A
102
}
330
2A
100
AcDbVisualStyle
  2
GouraudWithEdges
 70
     3
 71
     2
 72
     2
 73
     1
 90
        2
 40
-0.6
 41
30.0
 62
     5
 63
     7
421
 16777215
 74
     1
 91
        4
 64
     7
 65
   257
 75
     1
175
     1
 42
1.0
 92
        0
 66
   257
 43
1.0
 76
     1
 77
     6
 78
     2
 67
     7
 79
     5
170
     0
171
     0
290
     0
174
     0
 93
       13
 44
0.0
173
     0
291
     1
 45
0.0
1001
ACAD
1000
AcDbSavedByObjectVersion
1070
     0
  0
VISUALSTYLE
  5
38
102
{ACAD_REACTORS
330
2A
102
}
330
2A
100
AcDbVisualStyle
  2
Linepattern
 70
    14
 71
     2
 72
     2
 73
     0
 90
        0
 40
-0.6
 41
-30.0
 62
     5
 63
     7
421
 16777215
 74
     1
 91
        4
 64
     7
 65
   257
 75
     7
175
     7
 42
1.0
 92
        8
 66
     7
 43
1.0
 76
     1
 77
     6
 78
     2
 67
     7
 79
     5
170
     0
171
     0
290
     0
174
     0
 93
        1
 44
0.0
173
     0
291
     1
 45
0.0
1001
ACAD
1000
AcDbSavedByObjectVersion
1070
     0
  0
VISUALSTYLE
  5
33
102
{ACAD_REACTORS
330
2A
102
}
330
2A
100
AcDbVisualStyle
  2
Realistic
 70
     8
 71
     2
 72
     2
 73
     0
 90
        0
 40
-0.6
 41
-30.0
 62
     5
 63
     7
421
 16777215
 74
     1
 91
        0
 64
     7
 65
   257
 75
     1
175
     1
 42
1.0
 92
        8
 66
     8
424
  7895160
 43
1.0
 76
     1
 77
     6
 78
     2
 67
     7
 79
     5
170
     0
171
     0
290
     0
174
     0
 93
       13
 44
0.0
173
     0
291
     0
 45
0.0
1001
ACAD
1000
AcDbSavedByObjectVersion
1070
     0
  0
VISUALSTYLE
  5
37
102
{ACAD_REACTORS
330
2A
102
}
330
2A
100
AcDbVisualStyle
  2
Thicken
 70
    13
 71
     2
 72
     2
 73
     0
 90
        0
 40
-0.6
 41
-30.0
 62
     5
 63
     7
421
 16777215
 74
     1
 91
        4
 64
     7
 65
   257
 75
     1
175
     1
 42
1.0
 92
       12
 66
     7
 43
1.0
 76
     1
 77
     6
 78
     2
 67
     7
 79
     5
170
     0
171
     0
290
     0
174
     0
 93
        1
 44
0.0
173
     0
291
     1
 45
0.0
1001
ACAD
1000
AcDbSavedByObjectVersion
1070
     0
  0
ENDSEC
  0
EOF
