  0
SECTION
  2
HEADER
  9
$ACADVER
  1
AC1018
  9
$ACADMAINTVER
 70
     0
  9
$DWGCODEPAGE
  3
ANSI_1252
  9
$INSBASE
 10
0.0
 20
0.0
 30
0.0
  9
$EXTMIN
 10
1.000000000000000E+20
 20
1.000000000000000E+20
 30
1.000000000000000E+20
  9
$EXTMAX
 10
-1.000000000000000E+20
 20
-1.000000000000000E+20
 30
-1.000000000000000E+20
  9
$LIMMIN
 10
0.0
 20
0.0
  9
$LIMMAX
 10
12.0
 20
9.0
  9
$ORTHOMODE
 70
     0
  9
$REGENMODE
 70
     1
  9
$FILLMODE
 70
     1
  9
$QTEXTMODE
 70
     0
  9
$MIRRTEXT
 70
     1
  9
$LTSCALE
 40
1.0
  9
$ATTMODE
 70
     1
  9
$TEXTSIZE
 40
0.2
  9
$TRACEWID
 40
0.05
  9
$TEXTSTYLE
  7
Standard
  9
$CLAYER
  8
0
  9
$CELTYPE
  6
ByLayer
  9
$CECOLOR
 62
   256
  9
$CELTSCALE
 40
1.0
  9
$DISPSILH
 70
     0
  9
$DIMSCALE
 40
1.0
  9
$DIMASZ
 40
0.18
  9
$DIMEXO
 40
0.0625
  9
$DIMDLI
 40
0.38
  9
$DIMRND
 40
0.0
  9
$DIMDLE
 40
0.0
  9
$DIMEXE
 40
0.18
  9
$DIMTP
 40
0.0
  9
$DIMTM
 40
0.0
  9
$DIMTXT
 40
0.18
  9
$DIMCEN
 40
0.09
  9
$DIMTSZ
 40
0.0
  9
$DIMTOL
 70
     0
  9
$DIMLIM
 70
     0
  9
$DIMTIH
 70
     1
  9
$DIMTOH
 70
     1
  9
$DIMSE1
 70
     0
  9
$DIMSE2
 70
     0
  9
$DIMTAD
 70
     0
  9
$DIMZIN
 70
     0
  9
$DIMBLK
  1

  9
$DIMASO
 70
     1
  9
$DIMSHO
 70
     1
  9
$DIMPOST
  1

  9
$DIMAPOST
  1

  9
$DIMALT
 70
     0
  9
$DIMALTD
 70
     2
  9
$DIMALTF
 40
25.4
  9
$DIMLFAC
 40
1.0
  9
$DIMTOFL
 70
     0
  9
$DIMTVP
 40
0.0
  9
$DIMTIX
 70
     0
  9
$DIMSOXD
 70
     0
  9
$DIMSAH
 70
     0
  9
$DIMBLK1
  1

  9
$DIMBLK2
  1

  9
$DIMSTYLE
  2
Standard
  9
$DIMCLRD
 70
     0
  9
$DIMCLRE
 70
     0
  9
$DIMCLRT
 70
     0
  9
$DIMTFAC
 40
1.0
  9
$DIMGAP
 40
0.09
  9
$DIMJUST
 70
     0
  9
$DIMSD1
 70
     0
  9
$DIMSD2
 70
     0
  9
$DIMTOLJ
 70
     1
  9
$DIMTZIN
 70
     0
  9
$DIMALTZ
 70
     0
  9
$DIMALTTZ
 70
     0
  9
$DIMUPT
 70
     0
  9
$DIMDEC
 70
     4
  9
$DIMTDEC
 70
     4
  9
$DIMALTU
 70
     2
  9
$DIMALTTD
 70
     2
  9
$DIMTXSTY
  7
Standard
  9
$DIMAUNIT
 70
     0
  9
$DIMADEC
 70
     0
  9
$DIMALTRND
 40
0.0
  9
$DIMAZIN
 70
     0
  9
$DIMDSEP
 70
    46
  9
$DIMATFIT
 70
     3
  9
$DIMFRAC
 70
     0
  9
$DIMLDRBLK
  1

  9
$DIMLUNIT
 70
     2
  9
$DIMLWD
 70
    -2
  9
$DIMLWE
 70
    -2
  9
$DIMTMOVE
 70
     0
  9
$LUNITS
 70
     2
  9
$LUPREC
 70
     4
  9
$SKETCHINC
 40
0.1
  9
$FILLETRAD
 40
0.5
  9
$AUNITS
 70
     0
  9
$AUPREC
 70
     0
  9
$MENU
  1
.
  9
$ELEVATION
 40
0.0
  9
$PELEVATION
 40
0.0
  9
$THICKNESS
 40
0.0
  9
$LIMCHECK
 70
     0
  9
$CHAMFERA
 40
0.5
  9
$CHAMFERB
 40
0.5
  9
$CHAMFERC
 40
1.0
  9
$CHAMFERD
 40
0.0
  9
$SKPOLY
 70
     0
  9
$TDCREATE
 40
2456253.599824734
  9
$TDUCREATE
 40
2456253.558158067
  9
$TDUPDATE
 40
2456253.599824745
  9
$TDUUPDATE
 40
2456253.558158079
  9
$TDINDWG
 40
0.0000000116
  9
$TDUSRTIMER
 40
0.0000000116
  9
$USRTIMER
 70
     1
  9
$ANGBASE
 50
0.0
  9
$ANGDIR
 70
     0
  9
$PDMODE
 70
     0
  9
$PDSIZE
 40
0.0
  9
$PLINEWID
 40
0.0
  9
$SPLFRAME
 70
     0
  9
$SPLINETYPE
 70
     6
  9
$SPLINESEGS
 70
     8
  9
$HANDSEED
  5
B2
  9
$SURFTAB1
 70
     6
  9
$SURFTAB2
 70
     6
  9
$SURFTYPE
 70
     6
  9
$SURFU
 70
     6
  9
$SURFV
 70
     6
  9
$UCSBASE
  2

  9
$UCSNAME
  2

  9
$UCSORG
 10
0.0
 20
0.0
 30
0.0
  9
$UCSXDIR
 10
1.0
 20
0.0
 30
0.0
  9
$UCSYDIR
 10
0.0
 20
1.0
 30
0.0
  9
$UCSORTHOREF
  2

  9
$UCSORTHOVIEW
 70
     0
  9
$UCSORGTOP
 10
0.0
 20
0.0
 30
0.0
  9
$UCSORGBOTTOM
 10
0.0
 20
0.0
 30
0.0
  9
$UCSORGLEFT
 10
0.0
 20
0.0
 30
0.0
  9
$UCSORGRIGHT
 10
0.0
 20
0.0
 30
0.0
  9
$UCSORGFRONT
 10
0.0
 20
0.0
 30
0.0
  9
$UCSORGBACK
 10
0.0
 20
0.0
 30
0.0
  9
$PUCSBASE
  2

  9
$PUCSNAME
  2

  9
$PUCSORG
 10
0.0
 20
0.0
 30
0.0
  9
$PUCSXDIR
 10
1.0
 20
0.0
 30
0.0
  9
$PUCSYDIR
 10
0.0
 20
1.0
 30
0.0
  9
$PUCSORTHOREF
  2

  9
$PUCSORTHOVIEW
 70
     0
  9
$PUCSORGTOP
 10
0.0
 20
0.0
 30
0.0
  9
$PUCSORGBOTTOM
 10
0.0
 20
0.0
 30
0.0
  9
$PUCSORGLEFT
 10
0.0
 20
0.0
 30
0.0
  9
$PUCSORGRIGHT
 10
0.0
 20
0.0
 30
0.0
  9
$PUCSORGFRONT
 10
0.0
 20
0.0
 30
0.0
  9
$PUCSORGBACK
 10
0.0
 20
0.0
 30
0.0
  9
$USERI1
 70
     0
  9
$USERI2
 70
     0
  9
$USERI3
 70
     0
  9
$USERI4
 70
     0
  9
$USERI5
 70
     0
  9
$USERR1
 40
0.0
  9
$USERR2
 40
0.0
  9
$USERR3
 40
0.0
  9
$USERR4
 40
0.0
  9
$USERR5
 40
0.0
  9
$WORLDVIEW
 70
     1
  9
$SHADEDGE
 70
     3
  9
$SHADEDIF
 70
    70
  9
$TILEMODE
 70
     1
  9
$MAXACTVP
 70
    64
  9
$PINSBASE
 10
0.0
 20
0.0
 30
0.0
  9
$PLIMCHECK
 70
     0
  9
$PEXTMIN
 10
1.000000000000000E+20
 20
1.000000000000000E+20
 30
1.000000000000000E+20
  9
$PEXTMAX
 10
-1.000000000000000E+20
 20
-1.000000000000000E+20
 30
-1.000000000000000E+20
  9
$PLIMMIN
 10
0.0
 20
0.0
  9
$PLIMMAX
 10
12.0
 20
9.0
  9
$UNITMODE
 70
     0
  9
$VISRETAIN
 70
     1
  9
$PLINEGEN
 70
     0
  9
$PSLTSCALE
 70
     1
  9
$TREEDEPTH
 70
  3020
  9
$CMLSTYLE
  2
Standard
  9
$CMLJUST
 70
     0
  9
$CMLSCALE
 40
1.0
  9
$PROXYGRAPHICS
 70
     1
  9
$MEASUREMENT
 70
     0
  9
$CELWEIGHT
370
    -1
  9
$ENDCAPS
280
     0
  9
$JOINSTYLE
280
     0
  9
$LWDISPLAY
290
     0
  9
$INSUNITS
 70
    13
  9
$HYPERLINKBASE
  1

  9
$STYLESHEET
  1

  9
$XEDIT
290
     1
  9
$CEPSNTYPE
380
     0
  9
$PSTYLEMODE
290
     1
  9
$FINGERPRINTGUID
  2
{E929F974-3508-4D02-BB2C-1479173B78F1}
  9
$VERSIONGUID
  2
{FAEB1C32-E019-11D5-929B-00C0DF256EC4}
  9
$EXTNAMES
290
     1
  9
$PSVPSCALE
 40
0.0
  9
$OLESTARTUP
290
     0
  9
$SORTENTS
280
   127
  9
$INDEXCTL
280
     0
  9
$HIDETEXT
280
     1
  9
$XCLIPFRAME
290
     0
  9
$HALOGAP
280
     0
  9
$OBSCOLOR
 70
   257
  9
$OBSLTYPE
280
     0
  9
$INTERSECTIONDISPLAY
280
     0
  9
$INTERSECTIONCOLOR
 70
   257
  9
$DIMASSOC
280
     2
  9
$PROJECTNAME
  1

  0
ENDSEC
  0
SECTION
  2
CLASSES
  0
CLASS
  1
ACDBDICTIONARYWDFLT
  2
AcDbDictionaryWithDefault
  3
ObjectDBX Classes
 90
        0
 91
        6
280
     0
281
     0
  0
CLASS
  1
VISUALSTYLE
  2
AcDbVisualStyle
  3
ObjectDBX Classes
 90
     4095
 91
        6
280
     0
281
     0
  0
CLASS
  1
SCALE
  2
AcDbScale
  3
ObjectDBX Classes
 90
     1153
 91
        6
280
     0
281
     0
  0
ENDSEC
  0
SECTION
  2
TABLES
  0
TABLE
  2
VPORT
  5
8
330
0
100
AcDbSymbolTable
 70
     1
  0
VPORT
  5
29
330
8
100
AcDbSymbolTableRecord
100
AcDbViewportTableRecord
  2
*Active
 70
     0
 10
0.0
 20
0.0
 11
1.0
 21
1.0
 12
10.42990654205607
 22
4.5
 13
0.0
 23
0.0
 14
0.5
 24
0.5
 15
0.5
 25
0.5
 16
0.0
 26
0.0
 36
1.0
 17
0.0
 27
0.0
 37
0.0
 40
9.0
 41
1.972972972850329
 42
50.0
 43
0.0
 44
0.0
 50
0.0
 51
0.0
 71
     0
 72
   100
 73
     1
 74
     3
 75
     0
 76
     0
 77
     0
 78
     0
281
     0
 65
     1
110
0.0
120
0.0
130
0.0
111
1.0
121
0.0
131
0.0
112
0.0
122
1.0
132
0.0
 79
     0
146
0.0
  0
ENDTAB
  0
TABLE
  2
LTYPE
  5
5
330
0
100
AcDbSymbolTable
 70
     1
  0
LTYPE
  5
14
330
5
100
AcDbSymbolTableRecord
100
AcDbLinetypeTableRecord
  2
ByBlock
 70
     0
  3

 72
    65
 73
     0
 40
0.0
  0
LTYPE
  5
15
330
5
100
AcDbSymbolTableRecord
100
AcDbLinetypeTableRecord
  2
ByLayer
 70
     0
  3

 72
    65
 73
     0
 40
0.0
  0
LTYPE
  5
16
330
5
100
AcDbSymbolTableRecord
100
AcDbLinetypeTableRecord
  2
Continuous
 70
     0
  3
Solid line
 72
    65
 73
     0
 40
0.0
  0
ENDTAB
  0
TABLE
  2
LAYER
  5
2
330
0
100
AcDbSymbolTable
 70
     2
  0
LAYER
  5
10
330
2
100
AcDbSymbolTableRecord
100
AcDbLayerTableRecord
  2
0
 70
     0
 62
     7
  6
Continuous
370
    -3
390
F
  0
LAYER
  5
5E
330
2
100
AcDbSymbolTableRecord
100
AcDbLayerTableRecord
  2
text2
 70
     0
 62
    16
420
  8388608
  6
Continuous
370
    -3
390
F
  0
ENDTAB
  0
TABLE
  2
STYLE
  5
3
330
0
100
AcDbSymbolTable
 70
     1
  0
STYLE
  5
11
330
3
100
AcDbSymbolTableRecord
100
AcDbTextStyleTableRecord
  2
Standard
 70
     0
 40
0.0
 41
1.0
 50
0.0
 71
     0
 42
0.2
  3
txt
  4

  0
ENDTAB
  0
TABLE
  2
VIEW
  5
6
330
0
100
AcDbSymbolTable
 70
     0
  0
ENDTAB
  0
TABLE
  2
UCS
  5
7
330
0
100
AcDbSymbolTable
 70
     0
  0
ENDTAB
  0
TABLE
  2
APPID
  5
9
330
0
100
AcDbSymbolTable
 70
     1
  0
APPID
  5
12
330
9
100
AcDbSymbolTableRecord
100
AcDbRegAppTableRecord
  2
ACAD
 70
     0
  0
ENDTAB
  0
TABLE
  2
DIMSTYLE
  5
A
330
0
100
AcDbSymbolTable
 70
     1
100
AcDbDimStyleTable
  0
DIMSTYLE
105
27
330
A
100
AcDbSymbolTableRecord
100
AcDbDimStyleTableRecord
  2
Standard
 70
     0
340
11
  0
ENDTAB
  0
TABLE
  2
BLOCK_RECORD
  5
1
330
0
100
AcDbSymbolTable
 70
     1
  0
BLOCK_RECORD
  5
1F
330
1
100
AcDbSymbolTableRecord
100
AcDbBlockTableRecord
  2
*Model_Space
340
22
  0
BLOCK_RECORD
  5
1B
330
1
100
AcDbSymbolTableRecord
100
AcDbBlockTableRecord
  2
*Paper_Space
340
1E
  0
BLOCK_RECORD
  5
23
330
1
100
AcDbSymbolTableRecord
100
AcDbBlockTableRecord
  2
*Paper_Space0
340
26
  0
ENDTAB
  0
ENDSEC
  0
SECTION
  2
BLOCKS
  0
BLOCK
  5
20
330
1F
100
AcDbEntity
  8
0
100
AcDbBlockBegin
  2
*Model_Space
 70
     0
 10
0.0
 20
0.0
 30
0.0
  3
*Model_Space
  1

  0
ENDBLK
  5
21
330
1F
100
AcDbEntity
  8
0
100
AcDbBlockEnd
  0
BLOCK
  5
1C
330
1B
100
AcDbEntity
 67
     1
  8
0
100
AcDbBlockBegin
  2
*Paper_Space
 70
     0
 10
0.0
 20
0.0
 30
0.0
  3
*Paper_Space
  1

  0
ENDBLK
  5
1D
330
1B
100
AcDbEntity
 67
     1
  8
0
100
AcDbBlockEnd
  0
BLOCK
  5
24
330
23
100
AcDbEntity
  8
0
100
AcDbBlockBegin
  2
*Paper_Space0
 70
     0
 10
0.0
 20
0.0
 30
0.0
  3
*Paper_Space0
  1

  0
ENDBLK
  5
25
330
23
100
AcDbEntity
  8
0
100
AcDbBlockEnd
  0
ENDSEC
  0
SECTION
  2
ENTITIES
  0
LWPOLYLINE
  5
5D
330
1F
100
AcDbEntity
  8
text2
100
AcDbPolyline
 90
        4
 70
     1
 43
0.0
 10
0.0
 20
0.0
 10
0.0
 20
3000.0
 10
3000.0
 20
3000.0
 10
3000.0
 20
0.0
  0
LWPOLYLINE
  5
5F
330
1F
100
AcDbEntity
  8
text2
100
AcDbPolyline
 90
        9
 70
     1
 43
0.0
 10
81.0
 20
1006.9
 10
81.0
 20
1037.9
 10
66.0
 20
1037.9
 10
66.0
 20
1115.9
 10
144.0
 20
1115.9
 10
144.0
 20
1037.9
 10
129.0
 20
1037.9
 10
129.0
 20
1006.9
 10
81.0
 20
1006.9
  0
LWPOLYLINE
  5
60
330
1F
100
AcDbEntity
  8
text2
100
AcDbPolyline
 90
        9
 70
     1
 43
0.0
 10
129.0
 20
1865.9
 10
144.0
 20
1865.9
 10
144.0
 20
1787.9
 10
66.0
 20
1787.9
 10
66.0
 20
1865.9
 10
81.0
 20
1865.9
 10
81.0
 20
1896.9
 10
129.0
 20
1896.9
 10
129.0
 20
1865.9
  0
LWPOLYLINE
  5
61
330
1F
100
AcDbEntity
  8
text2
100
AcDbPolyline
 90
        9
 70
     1
 43
0.0
 10
144.0
 20
1475.9
 10
175.0
 20
1475.9
 10
175.0
 20
1427.9
 10
144.0
 20
1427.9
 10
144.0
 20
1412.9
 10
66.0
 20
1412.9
 10
66.0
 20
1490.9
 10
144.0
 20
1490.9
 10
144.0
 20
1475.9
  0
LWPOLYLINE
  5
62
330
1F
100
AcDbEntity
  8
text2
100
AcDbPolyline
 90
       27
 70
     1
 43
0.0
 10
183.5
 20
2822.8
 10
183.5
 20
2832.1
 10
108.3
 20
2832.1
 10
108.3
 20
2901.0
 10
99.10000000000001
 20
2901.0
 10
94.7
 20
2901.7
 10
90.0
 20
2904.1
 10
86.4
 20
2907.7
 10
84.0
 20
2912.4
 10
83.2
 20
2917.5
 10
84.0
 20
2922.6
 10
86.4
 20
2927.3
 10
90.0
 20
2930.9
 10
94.7
 20
2933.3
 10
99.10000000000001
 20
2934.0
 10
216.5
 20
2934.0
 10
216.5
 20
2822.8
 10
215.8
 20
2818.4
 10
213.4
 20
2813.7
 10
209.8
 20
2810.1
 10
205.1
 20
2807.7
 10
200.0
 20
2806.9
 10
194.9
 20
2807.7
 10
190.2
 20
2810.1
 10
186.6
 20
2813.7
 10
184.2
 20
2818.4
 10
183.5
 20
2822.8
  0
LWPOLYLINE
  5
63
330
1F
100
AcDbEntity
  8
text2
100
AcDbPolyline
 90
       27
 70
     1
 43
0.0
 10
356.5
 20
2822.8
 10
356.5
 20
2934.0
 10
473.9
 20
2934.0
 10
478.3
 20
2933.3
 10
483.0
 20
2930.9
 10
486.6
 20
2927.3
 10
489.0
 20
2922.6
 10
489.8
 20
2917.5
 10
489.0
 20
2912.4
 10
486.6
 20
2907.7
 10
483.0
 20
2904.1
 10
478.3
 20
2901.7
 10
473.9
 20
2901.0
 10
464.7
 20
2901.0
 10
464.7
 20
2832.1
 10
389.5
 20
2832.1
 10
389.5
 20
2822.8
 10
388.8
 20
2818.4
 10
386.4
 20
2813.7
 10
382.8
 20
2810.1
 10
378.1
 20
2807.7
 10
373.0
 20
2806.9
 10
367.9
 20
2807.7
 10
363.2
 20
2810.1
 10
359.6
 20
2813.7
 10
357.2
 20
2818.4
 10
356.5
 20
2822.8
  0
LWPOLYLINE
  5
64
330
1F
100
AcDbEntity
  8
text2
100
AcDbPolyline
 90
        4
 70
     1
 43
0.0
 10
257.5
 20
2818.8
 10
257.5
 20
2934.0
 10
315.5
 20
2934.0
 10
315.5
 20
2818.8
  0
LWPOLYLINE
  5
65
330
1F
100
AcDbEntity
  8
text2
100
AcDbPolyline
 90
        4
 70
     1
 43
0.0
 10
66.0
 20
1162.9
 10
66.0
 20
1240.9
 10
144.0
 20
1240.9
 10
144.0
 20
1162.9
  0
LWPOLYLINE
  5
66
330
1F
100
AcDbEntity
  8
text2
100
AcDbPolyline
 90
        4
 70
     1
 43
0.0
 10
66.0
 20
1287.9
 10
66.0
 20
1365.9
 10
144.0
 20
1365.9
 10
144.0
 20
1287.9
  0
LWPOLYLINE
  5
67
330
1F
100
AcDbEntity
  8
text2
100
AcDbPolyline
 90
        5
 70
     1
 43
0.0
 10
144.0
 20
1587.9
 10
144.0
 20
1537.9
 10
66.0
 20
1537.9
 10
66.0
 20
1615.9
 10
144.0
 20
1615.9
  0
LWPOLYLINE
  5
68
330
1F
100
AcDbEntity
  8
text2
100
AcDbPolyline
 90
        4
 70
     1
 43
0.0
 10
66.0
 20
1662.9
 10
66.0
 20
1740.9
 10
144.0
 20
1740.9
 10
144.0
 20
1662.9
  0
LWPOLYLINE
  5
69
330
1F
100
AcDbEntity
  8
text2
100
AcDbPolyline
 90
      278
 70
     1
 43
0.0
 10
2832.3
 20
124.2
 10
2833.9
 20
125.4
 10
2835.5
 20
127.0
 10
2837.1
 20
128.2
 10
2838.3
 20
129.4
 10
2839.1
 20
131.0
 10
2839.9
 20
132.2
 10
2841.5
 20
135.4
 10
2841.9
 20
136.6
 10
2841.9
 20
138.2
 10
2842.3
 20
140.2
 10
2842.3
 20
141.8
 10
2841.9
 20
144.6
 10
2840.7
 20
148.2
 10
2838.7
 20
151.4
 10
2835.9
 20
154.6
 10
2832.7
 20
157.4
 10
2828.7
 20
159.8
 10
2827.9
 20
160.6
 10
2825.9
 20
158.2
 10
2823.5
 20
154.6
 10
2821.1
 20
150.6
 10
2819.1
 20
146.6
 10
2817.5
 20
142.6
 10
2816.3
 20
138.6
 10
2815.5
 20
134.6
 10
2815.1
 20
130.6
 10
2815.5
 20
127.0
 10
2815.9
 20
123.8
 10
2817.1
 20
120.6
 10
2817.5
 20
120.2
 10
2818.3
 20
120.2
 10
2823.9
 20
121.0
 10
2826.7
 20
121.8
 10
2829.1
 20
122.6
 10
2826.3
 20
121.4
 10
2823.1
 20
120.6
 10
2819.9
 20
119.4
 10
2817.9
 20
119.0
 10
2818.3
 20
118.2
 10
2820.7
 20
115.8
 10
2822.3
 20
114.6
 10
2823.9
 20
113.8
 10
2827.9
 20
112.2
 10
2831.9
 20
111.4
 10
2829.5
 20
111.4
 10
2826.7
 20
111.8
 10
2821.9
 20
113.4
 10
2819.5
 20
114.6
 10
2817.1
 20
115.4
 10
2815.1
 20
117.0
 10
2813.5
 20
118.2
 10
2812.7
 20
117.8
 10
2800.7
 20
116.6
 10
2792.7
 20
116.6
 10
2788.7
 20
117.0
 10
2784.3
 20
117.4
 10
2777.9
 20
118.6
 10
2770.7
 20
120.6
 10
2763.9
 20
123.0
 10
2757.5
 20
125.4
 10
2751.9
 20
128.6
 10
2746.7
 20
132.2
 10
2741.9
 20
135.8
 10
2738.3
 20
139.8
 10
2735.1
 20
144.2
 10
2733.1
 20
148.6
 10
2731.5
 20
153.0
 10
2731.1
 20
157.4
 10
2731.5
 20
161.4
 10
2732.3
 20
163.8
 10
2733.1
 20
165.8
 10
2734.3
 20
168.2
 10
2735.9
 20
170.2
 10
2739.9
 20
174.2
 10
2742.3
 20
175.8
 10
2744.7
 20
177.8
 10
2747.5
 20
179.4
 10
2753.1
 20
181.8
 10
2756.3
 20
183.0
 10
2751.5
 20
180.6
 10
2749.9
 20
179.4
 10
2747.9
 20
178.2
 10
2746.3
 20
177.0
 10
2742.7
 20
172.2
 10
2741.9
 20
170.6
 10
2741.1
 20
168.6
 10
2740.3
 20
164.6
 10
2739.9
 20
161.0
 10
2740.3
 20
156.6
 10
2741.5
 20
151.8
 10
2743.9
 20
147.8
 10
2747.1
 20
143.4
 10
2750.7
 20
139.4
 10
2755.5
 20
135.8
 10
2760.7
 20
132.2
 10
2766.3
 20
129.0
 10
2772.7
 20
126.2
 10
2779.5
 20
123.8
 10
2786.7
 20
122.2
 10
2793.1
 20
121.0
 10
2796.3
 20
120.6
 10
2799.9
 20
120.2
 10
2803.1
 20
119.8
 10
2811.5
 20
119.8
 10
2810.7
 20
120.2
 10
2806.7
 20
124.2
 10
2805.1
 20
126.6
 10
2802.3
 20
130.2
 10
2799.9
 20
135.0
 10
2799.5
 20
136.2
 10
2799.1
 20
136.6
 10
2798.3
 20
137.8
 10
2797.1
 20
139.0
 10
2796.3
 20
140.2
 10
2793.9
 20
141.8
 10
2792.7
 20
143.0
 10
2791.5
 20
143.4
 10
2789.1
 20
145.0
 10
2787.9
 20
145.4
 10
2786.3
 20
145.8
 10
2784.7
 20
145.8
 10
2783.1
 20
146.2
 10
2781.9
 20
146.2
 10
2780.3
 20
146.6
 10
2778.7
 20
146.2
 10
2777.1
 20
146.2
 10
2775.5
 20
145.8
 10
2774.3
 20
145.4
 10
2771.1
 20
144.6
 10
2769.9
 20
143.8
 10
2768.3
 20
143.0
 10
2766.7
 20
141.8
 10
2765.5
 20
141.0
 10
2768.3
 20
143.8
 10
2770.3
 20
145.0
 10
2771.9
 20
145.8
 10
2773.9
 20
147.0
 10
2775.5
 20
147.8
 10
2777.5
 20
148.6
 10
2779.1
 20
149.0
 10
2781.1
 20
149.8
 10
2782.7
 20
149.8
 10
2784.7
 20
150.2
 10
2786.7
 20
150.2
 10
2788.3
 20
149.8
 10
2790.3
 20
149.8
 10
2791.9
 20
149.0
 10
2793.9
 20
148.6
 10
2796.3
 20
147.4
 10
2795.9
 20
150.6
 10
2795.9
 20
156.2
 10
2796.3
 20
161.4
 10
2797.5
 20
166.6
 10
2797.9
 20
167.4
 10
2795.9
 20
167.4
 10
2790.3
 20
167.0
 10
2787.5
 20
166.6
 10
2784.7
 20
166.6
 10
2779.1
 20
165.8
 10
2776.7
 20
165.4
 10
2773.9
 20
164.6
 10
2771.5
 20
164.2
 10
2769.5
 20
163.4
 10
2767.1
 20
162.6
 10
2764.7
 20
161.4
 10
2762.7
 20
160.6
 10
2765.1
 20
162.2
 10
2767.9
 20
163.4
 10
2770.7
 20
165.0
 10
2773.5
 20
166.2
 10
2776.7
 20
167.0
 10
2779.9
 20
168.2
 10
2783.1
 20
169.0
 10
2786.7
 20
169.8
 10
2789.9
 20
170.6
 10
2797.1
 20
171.4
 10
2797.1
 20
172.6
 10
2796.3
 20
174.2
 10
2795.5
 20
175.4
 10
2794.7
 20
177.0
 10
2793.1
 20
179.4
 10
2789.5
 20
183.0
 10
2787.1
 20
184.6
 10
2785.5
 20
185.4
 10
2784.3
 20
185.8
 10
2782.7
 20
186.6
 10
2781.5
 20
187.0
 10
2779.9
 20
187.4
 10
2778.3
 20
187.4
 10
2776.7
 20
187.8
 10
2775.1
 20
187.8
 10
2773.5
 20
187.4
 10
2771.5
 20
187.4
 10
2769.9
 20
187.0
 10
2769.5
 20
187.0
 10
2771.9
 20
187.8
 10
2775.9
 20
188.6
 10
2783.9
 20
188.6
 10
2787.9
 20
187.8
 10
2789.5
 20
187.4
 10
2791.1
 20
186.6
 10
2793.1
 20
185.8
 10
2794.7
 20
184.6
 10
2795.9
 20
183.8
 10
2800.3
 20
179.4
 10
2801.1
 20
177.8
 10
2801.9
 20
177.0
 10
2804.3
 20
180.6
 10
2807.5
 20
185.0
 10
2811.1
 20
188.2
 10
2813.1
 20
189.8
 10
2815.5
 20
191.4
 10
2820.3
 20
193.8
 10
2827.5
 20
196.2
 10
2829.9
 20
196.6
 10
2837.5
 20
196.6
 10
2840.3
 20
196.2
 10
2837.9
 20
196.2
 10
2835.5
 20
195.8
 10
2833.5
 20
195.8
 10
2831.5
 20
195.0
 10
2829.5
 20
194.6
 10
2825.5
 20
193.0
 10
2823.9
 20
192.2
 10
2822.3
 20
191.0
 10
2821.1
 20
190.2
 10
2819.5
 20
189.0
 10
2815.9
 20
185.4
 10
2813.5
 20
182.2
 10
2809.5
 20
173.4
 10
2809.1
 20
171.4
 10
2814.7
 20
171.0
 10
2820.7
 20
169.8
 10
2825.9
 20
168.2
 10
2827.5
 20
167.8
 10
2829.9
 20
169.4
 10
2832.7
 20
171.0
 10
2834.7
 20
172.2
 10
2837.1
 20
173.0
 10
2839.5
 20
174.2
 10
2841.9
 20
175.0
 10
2844.3
 20
175.4
 10
2847.1
 20
176.2
 10
2851.9
 20
177.0
 10
2863.1
 20
177.0
 10
2865.1
 20
176.6
 10
2859.9
 20
176.6
 10
2857.9
 20
176.2
 10
2855.9
 20
176.2
 10
2854.3
 20
175.8
 10
2852.3
 20
175.0
 10
2850.3
 20
174.6
 10
2848.3
 20
173.8
 10
2846.3
 20
173.4
 10
2844.7
 20
172.6
 10
2842.7
 20
171.4
 10
2840.7
 20
170.6
 10
2838.7
 20
169.4
 10
2836.3
 20
167.8
 10
2833.1
 20
165.4
 10
2835.5
 20
164.2
 10
2839.1
 20
161.8
 10
2842.7
 20
159.0
 10
2845.1
 20
155.8
 10
2847.1
 20
152.6
 10
2848.3
 20
149.0
 10
2848.7
 20
145.8
 10
2848.7
 20
143.8
 10
2848.3
 20
141.8
 10
2846.7
 20
137.8
 10
2845.5
 20
136.2
 10
2842.3
 20
132.2
 10
2840.7
 20
130.6
 10
2838.7
 20
129.0
 10
2836.7
 20
127.0
 10
2834.7
 20
125.8
 10
2832.3
 20
124.2
  0
LWPOLYLINE
  5
6A
330
1F
100
AcDbEntity
  8
text2
100
AcDbPolyline
 90
       16
 70
     1
 43
0.0
 10
1121.715
 20
2841.572
 10
1121.715
 20
2852.287
 10
1150.285
 20
2873.717
 10
1150.285
 20
2880.857
 10
1146.715
 20
2884.427
 10
1132.425
 20
2884.427
 10
1128.855
 20
2880.857
 10
1121.715
 20
2884.427
 10
1128.855
 20
2891.572
 10
1150.285
 20
2891.572
 10
1157.425
 20
2884.427
 10
1157.425
 20
2870.142
 10
1128.855
 20
2848.717
 10
1157.425
 20
2848.717
 10
1157.425
 20
2841.572
 10
1121.715
 20
2841.572
  0
LWPOLYLINE
  5
6B
330
1F
100
AcDbEntity
  8
text2
100
AcDbPolyline
 90
        7
 70
     1
 43
0.0
 10
1078.855
 20
2870.142
 10
1096.715
 20
2870.142
 10
1100.285
 20
2873.717
 10
1100.285
 20
2880.857
 10
1096.715
 20
2884.427
 10
1078.855
 20
2884.427
 10
1078.855
 20
2870.142
  0
LWPOLYLINE
  5
6C
330
1F
100
AcDbEntity
  8
text2
100
AcDbPolyline
 90
        9
 70
     1
 43
0.0
 10
1071.715
 20
2841.572
 10
1071.715
 20
2891.572
 10
1100.285
 20
2891.572
 10
1107.425
 20
2884.427
 10
1107.425
 20
2870.142
 10
1100.285
 20
2863.002
 10
1078.855
 20
2863.002
 10
1078.855
 20
2841.572
 10
1071.715
 20
2841.572
  0
LWPOLYLINE
  5
6D
330
1F
100
AcDbEntity
  8
text2
100
AcDbPolyline
 90
        4
 70
     1
 43
0.0
 10
1239.0
 20
2811.5
 10
1239.0
 20
2906.5
 10
1934.0
 20
2906.5
 10
1934.0
 20
2811.5
  0
LWPOLYLINE
  5
6E
330
1F
100
AcDbEntity
  8
text2
100
AcDbPolyline
 90
       11
 70
     1
 43
0.0
 10
564.34
 20
2879.119
 10
564.34
 20
2886.264
 10
571.485
 20
2886.264
 10
571.485
 20
2921.974
 10
564.34
 20
2921.974
 10
571.485
 20
2929.119
 10
578.625
 20
2929.119
 10
578.625
 20
2886.264
 10
585.77
 20
2886.264
 10
585.77
 20
2879.119
 10
564.34
 20
2879.119
  0
LWPOLYLINE
  5
6F
330
1F
100
AcDbEntity
  8
text2
100
AcDbPolyline
 90
        9
 70
     1
 43
0.0
 10
507.2
 20
2879.119
 10
507.2
 20
2929.119
 10
535.77
 20
2929.119
 10
542.91
 20
2921.974
 10
542.91
 20
2907.689
 10
535.77
 20
2900.549
 10
514.34
 20
2900.549
 10
514.34
 20
2879.119
 10
507.2
 20
2879.119
  0
LWPOLYLINE
  5
70
330
1F
100
AcDbEntity
  8
text2
100
AcDbPolyline
 90
        7
 70
     1
 43
0.0
 10
514.34
 20
2907.689
 10
532.2
 20
2907.689
 10
535.77
 20
2911.264
 10
535.77
 20
2918.404
 10
532.2
 20
2921.974
 10
514.34
 20
2921.974
 10
514.34
 20
2907.689
  0
LWPOLYLINE
  5
71
330
1F
100
AcDbEntity
  8
text2
100
AcDbPolyline
 90
        4
 70
     1
 43
0.0
 10
2231.715
 20
144.43
 10
2217.43
 20
144.43
 10
2231.715
 20
158.715
 10
2231.715
 20
144.43
  0
LWPOLYLINE
  5
72
330
1F
100
AcDbEntity
  8
text2
100
AcDbPolyline
 90
       12
 70
     1
 43
0.0
 10
2231.715
 20
119.43
 10
2231.715
 20
137.285
 10
2210.29
 20
137.285
 10
2210.29
 20
144.43
 10
2231.715
 20
169.43
 10
2238.86
 20
169.43
 10
2238.86
 20
144.43
 10
2246.0
 20
144.43
 10
2246.0
 20
137.285
 10
2238.86
 20
137.285
 10
2238.86
 20
119.43
 10
2231.715
 20
119.43
  0
LWPOLYLINE
  5
73
330
1F
100
AcDbEntity
  8
text2
100
AcDbPolyline
 90
        7
 70
     1
 43
0.0
 10
2167.43
 20
148.0
 10
2185.29
 20
148.0
 10
2188.86
 20
151.575
 10
2188.86
 20
158.715
 10
2185.29
 20
162.285
 10
2167.43
 20
162.285
 10
2167.43
 20
148.0
  0
LWPOLYLINE
  5
74
330
1F
100
AcDbEntity
  8
text2
100
AcDbPolyline
 90
        9
 70
     1
 43
0.0
 10
2160.29
 20
119.43
 10
2160.29
 20
169.43
 10
2188.86
 20
169.43
 10
2196.0
 20
162.285
 10
2196.0
 20
148.0
 10
2188.86
 20
140.86
 10
2167.43
 20
140.86
 10
2167.43
 20
119.43
 10
2160.29
 20
119.43
  0
LWPOLYLINE
  5
75
330
1F
100
AcDbEntity
  8
text2
100
AcDbPolyline
 90
        9
 70
     1
 43
0.0
 10
2839.717
 20
860.696
 10
2839.717
 20
910.696
 10
2868.287
 20
910.696
 10
2875.427
 20
903.551
 10
2875.427
 20
889.266
 10
2868.287
 20
882.126
 10
2846.857
 20
882.126
 10
2846.857
 20
860.696
 10
2839.717
 20
860.696
  0
LWPOLYLINE
  5
76
330
1F
100
AcDbEntity
  8
text2
100
AcDbPolyline
 90
        7
 70
     1
 43
0.0
 10
2846.857
 20
889.266
 10
2864.717
 20
889.266
 10
2868.287
 20
892.841
 10
2868.287
 20
899.981
 10
2864.717
 20
903.551
 10
2846.857
 20
903.551
 10
2846.857
 20
889.266
  0
LWPOLYLINE
  5
77
330
1F
100
AcDbEntity
  8
text2
100
AcDbPolyline
 90
       26
 70
     1
 43
0.0
 10
2889.717
 20
867.841
 10
2896.857
 20
871.4110000000001
 10
2900.427
 20
867.841
 10
2914.717
 20
867.841
 10
2918.287
 20
871.4110000000001
 10
2918.287
 20
874.981
 10
2911.142
 20
882.126
 10
2904.002
 20
882.126
 10
2904.002
 20
889.266
 10
2911.142
 20
889.266
 10
2918.287
 20
896.4110000000001
 10
2918.287
 20
899.981
 10
2914.717
 20
903.551
 10
2900.427
 20
903.551
 10
2896.857
 20
899.981
 10
2889.717
 20
903.551
 10
2896.857
 20
910.696
 10
2918.287
 20
910.696
 10
2925.427
 20
903.551
 10
2925.427
 20
892.841
 10
2918.287
 20
885.696
 10
2925.427
 20
878.551
 10
2925.427
 20
867.841
 10
2918.287
 20
860.696
 10
2896.857
 20
860.696
 10
2889.717
 20
867.841
  0
LWPOLYLINE
  5
78
330
1F
100
AcDbEntity
  8
text2
100
AcDbPolyline
 90
        9
 70
     1
 43
0.0
 10
300.228
 20
1946.669
 10
300.228
 20
1968.097
 10
293.086
 20
1968.097
 10
293.086
 20
1971.669
 10
310.941
 20
1971.669
 10
310.941
 20
1968.097
 10
303.798
 20
1968.097
 10
303.798
 20
1946.669
 10
300.228
 20
1946.669
  0
LWPOLYLINE
  5
79
330
1F
100
AcDbEntity
  8
text2
100
AcDbPolyline
 90
       13
 70
     1
 43
0.0
 10
268.085
 20
1950.242
 10
268.085
 20
1971.669
 10
271.656
 20
1971.669
 10
271.656
 20
1952.026
 10
273.441
 20
1950.242
 10
280.585
 20
1950.242
 10
282.37
 20
1952.026
 10
282.37
 20
1971.669
 10
285.941
 20
1971.669
 10
285.941
 20
1950.242
 10
282.37
 20
1946.669
 10
271.656
 20
1946.669
 10
268.085
 20
1950.242
  0
LWPOLYLINE
  5
7A
330
1F
100
AcDbEntity
  8
text2
100
AcDbPolyline
 90
        9
 70
     1
 43
0.0
 10
248.441
 20
1950.242
 10
255.585
 20
1950.242
 10
257.37
 20
1952.026
 10
257.37
 20
1966.312
 10
255.585
 20
1968.097
 10
248.441
 20
1968.097
 10
246.656
 20
1966.312
 10
246.656
 20
1952.026
 10
248.441
 20
1950.242
  0
LWPOLYLINE
  5
7B
330
1F
100
AcDbEntity
  8
text2
100
AcDbPolyline
 90
        9
 70
     1
 43
0.0
 10
243.085
 20
1950.242
 10
243.085
 20
1968.097
 10
246.656
 20
1971.669
 10
257.37
 20
1971.669
 10
260.94
 20
1968.097
 10
260.94
 20
1950.242
 10
257.37
 20
1946.669
 10
246.656
 20
1946.669
 10
243.085
 20
1950.242
  0
LWPOLYLINE
  5
7C
330
1F
100
AcDbEntity
  8
text2
100
AcDbPolyline
 90
       11
 70
     1
 43
0.0
 10
193.085
 20
1946.669
 10
193.085
 20
1971.669
 10
209.155
 20
1971.669
 10
209.155
 20
1968.097
 10
196.656
 20
1968.097
 10
196.656
 20
1960.954
 10
203.798
 20
1960.954
 10
203.798
 20
1957.384
 10
196.656
 20
1957.384
 10
196.656
 20
1946.669
 10
193.085
 20
1946.669
  0
LWPOLYLINE
  5
7D
330
1F
100
AcDbEntity
  8
text2
100
AcDbPolyline
 90
       13
 70
     1
 43
0.0
 10
171.656
 20
1946.669
 10
171.656
 20
1950.242
 10
175.228
 20
1950.242
 10
175.228
 20
1968.097
 10
171.656
 20
1968.097
 10
171.656
 20
1971.669
 10
182.37
 20
1971.669
 10
182.37
 20
1968.097
 10
178.798
 20
1968.097
 10
178.798
 20
1950.242
 10
182.37
 20
1950.242
 10
182.37
 20
1946.669
 10
171.656
 20
1946.669
  0
LWPOLYLINE
  5
7E
330
1F
100
AcDbEntity
  8
text2
100
AcDbPolyline
 90
       19
 70
     1
 43
0.0
 10
121.0
 20
1956.29
 10
128.14
 20
1959.86
 10
131.71
 20
1956.29
 10
146.0
 20
1956.29
 10
149.57
 20
1959.86
 10
149.57
 20
1970.575
 10
146.0
 20
1974.145
 10
121.0
 20
1974.145
 10
121.0
 20
1999.145
 10
156.71
 20
1999.145
 10
156.71
 20
1992.0
 10
128.14
 20
1992.0
 10
128.14
 20
1981.29
 10
149.57
 20
1981.29
 10
156.71
 20
1974.145
 10
156.71
 20
1956.29
 10
149.57
 20
1949.145
 10
128.14
 20
1949.145
 10
121.0
 20
1956.29
  0
LWPOLYLINE
  5
7F
330
1F
100
AcDbEntity
  8
text2
100
AcDbPolyline
 90
        7
 70
     1
 43
0.0
 10
78.14
 20
1977.715
 10
96.0
 20
1977.715
 10
99.57000000000001
 20
1981.29
 10
99.57000000000001
 20
1988.43
 10
96.0
 20
1992.0
 10
78.14
 20
1992.0
 10
78.14
 20
1977.715
  0
LWPOLYLINE
  5
80
330
1F
100
AcDbEntity
  8
text2
100
AcDbPolyline
 90
        9
 70
     1
 43
0.0
 10
71.0
 20
1949.145
 10
71.0
 20
1999.145
 10
99.57000000000001
 20
1999.145
 10
106.71
 20
1992.0
 10
106.71
 20
1977.715
 10
99.57000000000001
 20
1970.575
 10
78.14
 20
1970.575
 10
78.14
 20
1949.145
 10
71.0
 20
1949.145
  0
LWPOLYLINE
  5
81
330
1F
100
AcDbEntity
  8
text2
100
AcDbPolyline
 90
       74
 70
     1
 43
0.0
 10
2899.5
 20
151.8
 10
2899.9
 20
148.6
 10
2899.9
 20
143.0
 10
2897.9
 20
136.6
 10
2894.7
 20
130.6
 10
2890.3
 20
125.0
 10
2884.7
 20
119.8
 10
2877.9
 20
114.6
 10
2869.9
 20
110.6
 10
2861.1
 20
106.6
 10
2851.5
 20
103.4
 10
2841.1
 20
101.0
 10
2830.3
 20
99.4
 10
2818.7
 20
98.2
 10
2808.7
 20
98.2
 10
2802.3
 20
98.60000000000001
 10
2795.9
 20
99.0
 10
2789.5
 20
99.4
 10
2783.5
 20
100.6
 10
2777.5
 20
101.8
 10
2771.5
 20
103.0
 10
2765.9
 20
104.6
 10
2760.7
 20
106.2
 10
2755.5
 20
108.2
 10
2750.7
 20
110.2
 10
2745.9
 20
112.6
 10
2741.9
 20
114.6
 10
2745.9
 20
113.0
 10
2749.5
 20
111.4
 10
2753.5
 20
109.8
 10
2757.9
 20
108.2
 10
2761.9
 20
107.0
 10
2766.3
 20
106.2
 10
2771.1
 20
105.0
 10
2775.5
 20
104.2
 10
2780.3
 20
103.8
 10
2785.5
 20
103.4
 10
2790.7
 20
103.0
 10
2805.9
 20
103.0
 10
2817.5
 20
104.2
 10
2828.3
 20
105.8
 10
2838.7
 20
108.2
 10
2848.3
 20
111.4
 10
2857.1
 20
115.4
 10
2865.1
 20
119.4
 10
2871.9
 20
124.2
 10
2877.5
 20
129.8
 10
2881.9
 20
135.4
 10
2885.1
 20
141.4
 10
2887.1
 20
147.8
 10
2887.5
 20
153.0
 10
2887.1
 20
156.2
 10
2886.7
 20
159.0
 10
2886.3
 20
161.8
 10
2885.5
 20
164.6
 10
2884.3
 20
167.4
 10
2882.7
 20
170.2
 10
2881.1
 20
172.6
 10
2879.1
 20
175.0
 10
2877.1
 20
177.4
 10
2874.3
 20
179.8
 10
2871.5
 20
181.8
 10
2868.3
 20
184.2
 10
2872.3
 20
181.8
 10
2876.7
 20
179.4
 10
2880.3
 20
177.0
 10
2883.9
 20
174.2
 10
2887.5
 20
171.4
 10
2890.3
 20
168.2
 10
2893.1
 20
165.0
 10
2895.5
 20
162.2
 10
2897.1
 20
158.6
 10
2898.7
 20
155.4
 10
2899.5
 20
151.8
  0
LWPOLYLINE
  5
82
330
1F
100
AcDbEntity
  8
text2
100
AcDbPolyline
 90
       11
 70
     1
 43
0.0
 10
2621.63
 20
81.8
 10
2621.63
 20
88.94500000000001
 10
2628.775
 20
88.94500000000001
 10
2628.775
 20
124.655
 10
2621.63
 20
124.655
 10
2628.775
 20
131.8
 10
2635.915
 20
131.8
 10
2635.915
 20
88.94500000000001
 10
2643.06
 20
88.94500000000001
 10
2643.06
 20
81.8
 10
2621.63
 20
81.8
  0
LWPOLYLINE
  5
83
330
1F
100
AcDbEntity
  8
text2
100
AcDbPolyline
 90
        9
 70
     1
 43
0.0
 10
2575.2
 20
92.515
 10
2575.2
 20
121.085
 10
2578.775
 20
124.655
 10
2585.915
 20
124.655
 10
2589.49
 20
121.085
 10
2589.49
 20
92.515
 10
2585.915
 20
88.94500000000001
 10
2578.775
 20
88.94500000000001
 10
2575.2
 20
92.515
  0
LWPOLYLINE
  5
84
330
1F
100
AcDbEntity
  8
text2
100
AcDbPolyline
 90
        9
 70
     1
 43
0.0
 10
2568.06
 20
88.94500000000001
 10
2568.06
 20
124.655
 10
2575.2
 20
131.8
 10
2589.49
 20
131.8
 10
2596.63
 20
124.655
 10
2596.63
 20
88.94500000000001
 10
2589.49
 20
81.8
 10
2575.2
 20
81.8
 10
2568.06
 20
88.94500000000001
  0
LWPOLYLINE
  5
85
330
1F
100
AcDbEntity
  8
text2
100
AcDbPolyline
 90
        9
 70
     1
 43
0.0
 10
2525.2
 20
92.515
 10
2525.2
 20
121.085
 10
2528.775
 20
124.655
 10
2535.915
 20
124.655
 10
2539.49
 20
121.085
 10
2539.49
 20
92.515
 10
2535.915
 20
88.94500000000001
 10
2528.775
 20
88.94500000000001
 10
2525.2
 20
92.515
  0
LWPOLYLINE
  5
86
330
1F
100
AcDbEntity
  8
text2
100
AcDbPolyline
 90
        9
 70
     1
 43
0.0
 10
2518.06
 20
88.94500000000001
 10
2518.06
 20
124.655
 10
2525.2
 20
131.8
 10
2539.49
 20
131.8
 10
2546.63
 20
124.655
 10
2546.63
 20
88.94500000000001
 10
2539.49
 20
81.8
 10
2525.2
 20
81.8
 10
2518.06
 20
88.94500000000001
  0
LWPOLYLINE
  5
87
330
1F
100
AcDbEntity
  8
text2
100
AcDbPolyline
 90
       21
 70
     1
 43
0.0
 10
2464.49
 20
88.94500000000001
 10
2464.49
 20
124.655
 10
2471.63
 20
131.8
 10
2493.06
 20
131.8
 10
2500.2
 20
124.655
 10
2500.2
 20
117.515
 10
2493.06
 20
117.515
 10
2493.06
 20
121.085
 10
2489.49
 20
124.655
 10
2475.2
 20
124.655
 10
2471.63
 20
121.085
 10
2471.63
 20
92.515
 10
2475.2
 20
88.94500000000001
 10
2489.49
 20
88.94500000000001
 10
2493.06
 20
92.515
 10
2493.06
 20
96.08500000000001
 10
2500.2
 20
96.08500000000001
 10
2500.2
 20
88.94500000000001
 10
2493.06
 20
81.8
 10
2471.63
 20
81.8
 10
2464.49
 20
88.94500000000001
  0
LWPOLYLINE
  5
88
330
1F
100
AcDbEntity
  8
text2
100
AcDbPolyline
 90
       25
 70
     1
 43
0.0
 10
2414.49
 20
88.94500000000001
 10
2421.63
 20
92.515
 10
2425.2
 20
88.94500000000001
 10
2439.49
 20
88.94500000000001
 10
2443.06
 20
92.515
 10
2443.06
 20
99.655
 10
2439.49
 20
103.23
 10
2421.63
 20
103.23
 10
2414.49
 20
110.37
 10
2414.49
 20
124.655
 10
2421.63
 20
131.8
 10
2443.06
 20
131.8
 10
2450.2
 20
124.655
 10
2443.06
 20
121.085
 10
2439.49
 20
124.655
 10
2425.2
 20
124.655
 10
2421.63
 20
121.085
 10
2421.63
 20
113.945
 10
2425.2
 20
110.37
 10
2443.06
 20
110.37
 10
2450.2
 20
103.23
 10
2450.2
 20
88.94500000000001
 10
2443.06
 20
81.8
 10
2421.63
 20
81.8
 10
2414.49
 20
88.94500000000001
  0
LWPOLYLINE
  5
89
330
1F
100
AcDbEntity
  8
text2
100
AcDbPolyline
 90
        7
 70
     1
 43
0.0
 10
2371.63
 20
110.37
 10
2389.49
 20
110.37
 10
2393.06
 20
113.945
 10
2393.06
 20
121.085
 10
2389.49
 20
124.655
 10
2371.63
 20
124.655
 10
2371.63
 20
110.37
  0
LWPOLYLINE
  5
8A
330
1F
100
AcDbEntity
  8
text2
100
AcDbPolyline
 90
       13
 70
     1
 43
0.0
 10
2364.49
 20
81.8
 10
2364.49
 20
131.8
 10
2393.06
 20
131.8
 10
2400.2
 20
124.655
 10
2400.2
 20
110.37
 10
2393.06
 20
103.23
 10
2382.345
 20
103.23
 10
2400.2
 20
85.372
 10
2400.2
 20
81.8
 10
2393.06
 20
81.8
 10
2371.63
 20
103.23
 10
2371.63
 20
81.8
 10
2364.49
 20
81.8
  0
LWPOLYLINE
  5
8B
330
1F
100
AcDbEntity
  8
text2
100
AcDbPolyline
 90
        9
 70
     1
 43
0.0
 10
2335.915
 20
92.515
 10
2335.915
 20
99.655
 10
2332.345
 20
103.23
 10
2328.775
 20
103.23
 10
2325.2
 20
99.655
 10
2325.2
 20
92.515
 10
2328.775
 20
88.94500000000001
 10
2332.345
 20
88.94500000000001
 10
2335.915
 20
92.515
  0
LWPOLYLINE
  5
8C
330
1F
100
AcDbEntity
  8
text2
100
AcDbPolyline
 90
       18
 70
     1
 43
0.0
 10
2339.49
 20
81.8
 10
2339.49
 20
78.229
 10
2335.915
 20
74.655
 10
2318.06
 20
74.655
 10
2318.06
 20
67.515
 10
2339.49
 20
67.515
 10
2346.63
 20
74.655
 10
2346.63
 20
110.37
 10
2339.49
 20
110.37
 10
2339.49
 20
106.8
 10
2335.915
 20
110.37
 10
2325.2
 20
110.37
 10
2318.06
 20
103.23
 10
2318.06
 20
88.94500000000001
 10
2325.2
 20
81.8
 10
2335.915
 20
81.8
 10
2339.49
 20
85.372
 10
2339.49
 20
81.8
  0
LWPOLYLINE
  5
8D
330
1F
100
AcDbEntity
  8
text2
100
AcDbPolyline
 90
       11
 70
     1
 43
0.0
 10
2877.795
 20
223.119
 10
2877.795
 20
230.264
 10
2884.94
 20
230.264
 10
2884.94
 20
265.974
 10
2877.795
 20
265.974
 10
2884.94
 20
273.119
 10
2892.08
 20
273.119
 10
2892.08
 20
230.264
 10
2899.225
 20
230.264
 10
2899.225
 20
223.119
 10
2877.795
 20
223.119
  0
LWPOLYLINE
  5
8E
330
1F
100
AcDbEntity
  8
text2
100
AcDbPolyline
 90
        7
 70
     1
 43
0.0
 10
2827.795
 20
251.689
 10
2849.225
 20
251.689
 10
2849.225
 20
262.404
 10
2845.655
 20
265.974
 10
2831.365
 20
265.974
 10
2827.795
 20
262.404
 10
2827.795
 20
251.689
  0
LWPOLYLINE
  5
8F
330
1F
100
AcDbEntity
  8
text2
100
AcDbPolyline
 90
       11
 70
     1
 43
0.0
 10
2820.655
 20
223.119
 10
2820.655
 20
265.974
 10
2827.795
 20
273.119
 10
2849.225
 20
273.119
 10
2856.365
 20
265.974
 10
2856.365
 20
223.119
 10
2849.225
 20
223.119
 10
2849.225
 20
244.549
 10
2827.795
 20
244.549
 10
2827.795
 20
223.119
 10
2820.655
 20
223.119
  0
LWPOLYLINE
  5
90
330
1F
100
AcDbEntity
  8
text2
100
AcDbPolyline
 90
        7
 70
     1
 43
0.0
 10
2809.682
 20
834.875
 10
2818.611
 20
834.875
 10
2820.396
 20
836.662
 10
2820.396
 20
840.2330000000001
 10
2818.611
 20
842.018
 10
2809.682
 20
842.018
 10
2809.682
 20
834.875
  0
LWPOLYLINE
  5
91
330
1F
100
AcDbEntity
  8
text2
100
AcDbPolyline
 90
       13
 70
     1
 43
0.0
 10
2806.112
 20
820.59
 10
2806.112
 20
845.59
 10
2820.396
 20
845.59
 10
2823.967
 20
842.018
 10
2823.967
 20
834.875
 10
2820.396
 20
831.3050000000001
 10
2815.039
 20
831.3050000000001
 10
2823.967
 20
822.376
 10
2823.967
 20
820.59
 10
2820.396
 20
820.59
 10
2809.682
 20
831.3050000000001
 10
2809.682
 20
820.59
 10
2806.112
 20
820.59
  0
LWPOLYLINE
  5
92
330
1F
100
AcDbEntity
  8
text2
100
AcDbPolyline
 90
       11
 70
     1
 43
0.0
 10
693.056
 20
2906.691
 10
693.056
 20
2931.691
 10
698.412
 20
2931.691
 10
707.341
 20
2912.048
 10
707.341
 20
2931.691
 10
710.912
 20
2931.691
 10
710.912
 20
2906.691
 10
705.556
 20
2906.691
 10
696.6270000000001
 20
2926.334
 10
696.6270000000001
 20
2906.691
 10
693.056
 20
2906.691
  0
LWPOLYLINE
  5
93
330
1F
100
AcDbEntity
  8
text2
100
AcDbPolyline
 90
       13
 70
     1
 43
0.0
 10
671.6270000000001
 20
2906.691
 10
671.6270000000001
 20
2910.264
 10
675.1990000000001
 20
2910.264
 10
675.1990000000001
 20
2928.119
 10
671.6270000000001
 20
2928.119
 10
671.6270000000001
 20
2931.691
 10
682.341
 20
2931.691
 10
682.341
 20
2928.119
 10
678.769
 20
2928.119
 10
678.769
 20
2910.264
 10
682.341
 20
2910.264
 10
682.341
 20
2906.691
 10
671.6270000000001
 20
2906.691
  0
LWPOLYLINE
  5
94
330
1F
100
AcDbEntity
  8
text2
100
AcDbPolyline
 90
        9
 70
     1
 43
0.0
 10
623.4110000000001
 20
2910.264
 10
630.557
 20
2910.264
 10
632.341
 20
2912.048
 10
632.341
 20
2926.334
 10
630.557
 20
2928.119
 10
623.4110000000001
 20
2928.119
 10
621.6270000000001
 20
2926.334
 10
621.6270000000001
 20
2912.048
 10
623.4110000000001
 20
2910.264
  0
LWPOLYLINE
  5
95
330
1F
100
AcDbEntity
  8
text2
100
AcDbPolyline
 90
        9
 70
     1
 43
0.0
 10
618.056
 20
2910.264
 10
618.056
 20
2928.119
 10
621.6270000000001
 20
2931.691
 10
632.341
 20
2931.691
 10
635.9110000000001
 20
2928.119
 10
635.9110000000001
 20
2910.264
 10
632.341
 20
2906.691
 10
621.6270000000001
 20
2906.691
 10
618.056
 20
2910.264
  0
LWPOLYLINE
  5
96
330
1F
100
AcDbEntity
  8
text2
100
AcDbPolyline
 90
        7
 70
     1
 43
0.0
 10
593.057
 20
2906.691
 10
593.057
 20
2931.691
 10
596.6270000000001
 20
2931.691
 10
596.6270000000001
 20
2910.264
 10
610.912
 20
2910.264
 10
610.912
 20
2906.691
 10
593.057
 20
2906.691
  0
LWPOLYLINE
  5
97
330
1F
100
AcDbEntity
  8
text2
100
AcDbPolyline
 90
        4
 70
     1
 43
0.0
 10
339.0
 20
66.0
 10
339.0
 20
161.0
 10
1234.0
 20
161.0
 10
1234.0
 20
66.0
  0
LWPOLYLINE
  5
98
330
1F
100
AcDbEntity
  8
text2
100
AcDbPolyline
 90
        4
 70
     1
 43
0.0
 10
2039.0
 20
66.0
 10
2039.0
 20
161.0
 10
2134.0
 20
161.0
 10
2134.0
 20
66.0
  0
LWPOLYLINE
  5
99
330
1F
100
AcDbEntity
  8
text2
100
AcDbPolyline
 90
        4
 70
     1
 43
0.0
 10
1889.0
 20
66.0
 10
1889.0
 20
161.0
 10
1984.0
 20
161.0
 10
1984.0
 20
66.0
  0
LWPOLYLINE
  5
9A
330
1F
100
AcDbEntity
  8
text2
100
AcDbPolyline
 90
        4
 70
     1
 43
0.0
 10
1739.0
 20
66.0
 10
1739.0
 20
161.0
 10
1834.0
 20
161.0
 10
1834.0
 20
66.0
  0
LWPOLYLINE
  5
9B
330
1F
100
AcDbEntity
  8
text2
100
AcDbPolyline
 90
        4
 70
     1
 43
0.0
 10
1589.0
 20
66.0
 10
1589.0
 20
161.0
 10
1684.0
 20
161.0
 10
1684.0
 20
66.0
  0
LWPOLYLINE
  5
9C
330
1F
100
AcDbEntity
  8
text2
100
AcDbPolyline
 90
        4
 70
     1
 43
0.0
 10
1439.0
 20
66.0
 10
1439.0
 20
161.0
 10
1534.0
 20
161.0
 10
1534.0
 20
66.0
  0
LWPOLYLINE
  5
9D
330
1F
100
AcDbEntity
  8
text2
100
AcDbPolyline
 90
        4
 70
     1
 43
0.0
 10
1289.0
 20
66.0
 10
1289.0
 20
161.0
 10
1384.0
 20
161.0
 10
1384.0
 20
66.0
  0
LWPOLYLINE
  5
9E
330
1F
100
AcDbEntity
  8
text2
100
AcDbPolyline
 90
       11
 70
     1
 43
0.0
 10
2831.111
 20
820.59
 10
2831.111
 20
845.59
 10
2847.181
 20
845.59
 10
2847.181
 20
842.018
 10
2834.682
 20
842.018
 10
2834.682
 20
834.875
 10
2841.824
 20
834.875
 10
2841.824
 20
831.3050000000001
 10
2834.682
 20
831.3050000000001
 10
2834.682
 20
820.59
 10
2831.111
 20
820.59
  0
LWPOLYLINE
  5
9F
330
1F
100
AcDbEntity
  8
text2
100
AcDbPolyline
 90
       13
 70
     1
 43
0.0
 10
2884.682
 20
820.59
 10
2884.682
 20
824.163
 10
2888.254
 20
824.163
 10
2888.254
 20
842.018
 10
2884.682
 20
842.018
 10
2884.682
 20
845.59
 10
2895.396
 20
845.59
 10
2895.396
 20
842.018
 10
2891.824
 20
842.018
 10
2891.824
 20
824.163
 10
2895.396
 20
824.163
 10
2895.396
 20
820.59
 10
2884.682
 20
820.59
  0
LWPOLYLINE
  5
A0
330
1F
100
AcDbEntity
  8
text2
100
AcDbPolyline
 90
       11
 70
     1
 43
0.0
 10
2906.111
 20
820.59
 10
2906.111
 20
845.59
 10
2911.467
 20
845.59
 10
2920.396
 20
825.947
 10
2920.396
 20
845.59
 10
2923.967
 20
845.59
 10
2923.967
 20
820.59
 10
2918.611
 20
820.59
 10
2909.682
 20
840.2330000000001
 10
2909.682
 20
820.59
 10
2906.111
 20
820.59
  0
LWPOLYLINE
  5
A1
330
1F
100
AcDbEntity
  8
text2
100
AcDbPolyline
 90
        4
 70
     1
 43
0.0
 10
1989.0
 20
2811.5
 10
1989.0
 20
2906.5
 10
2084.0
 20
2906.5
 10
2084.0
 20
2811.5
  0
LWPOLYLINE
  5
A2
330
1F
100
AcDbEntity
  8
text2
100
AcDbPolyline
 90
        4
 70
     1
 43
0.0
 10
2139.0
 20
2811.5
 10
2139.0
 20
2906.5
 10
2234.0
 20
2906.5
 10
2234.0
 20
2811.5
  0
LWPOLYLINE
  5
A3
330
1F
100
AcDbEntity
  8
text2
100
AcDbPolyline
 90
        4
 70
     1
 43
0.0
 10
2289.0
 20
2811.5
 10
2289.0
 20
2906.5
 10
2384.0
 20
2906.5
 10
2384.0
 20
2811.5
  0
LWPOLYLINE
  5
A4
330
1F
100
AcDbEntity
  8
text2
100
AcDbPolyline
 90
        4
 70
     1
 43
0.0
 10
2439.0
 20
2811.5
 10
2439.0
 20
2906.5
 10
2534.0
 20
2906.5
 10
2534.0
 20
2811.5
  0
LWPOLYLINE
  5
A5
330
1F
100
AcDbEntity
  8
text2
100
AcDbPolyline
 90
        4
 70
     1
 43
0.0
 10
2589.0
 20
2811.5
 10
2589.0
 20
2906.5
 10
2684.0
 20
2906.5
 10
2684.0
 20
2811.5
  0
LWPOLYLINE
  5
A6
330
1F
100
AcDbEntity
  8
text2
100
AcDbPolyline
 90
        4
 70
     1
 43
0.0
 10
2739.0
 20
2811.5
 10
2739.0
 20
2906.5
 10
2834.0
 20
2906.5
 10
2834.0
 20
2811.5
  0
LWPOLYLINE
  5
A7
330
1F
100
AcDbEntity
  8
text2
100
AcDbPolyline
 90
       11
 70
     1
 43
0.0
 10
1211.428
 20
2846.572
 10
1211.428
 20
2850.145
 10
1215.0
 20
2850.145
 10
1215.0
 20
2868.0
 10
1211.428
 20
2868.0
 10
1215.0
 20
2871.572
 10
1218.57
 20
2871.572
 10
1218.57
 20
2850.145
 10
1222.142
 20
2850.145
 10
1222.142
 20
2846.572
 10
1211.428
 20
2846.572
  0
LWPOLYLINE
  5
A8
330
1F
100
AcDbEntity
  8
text2
100
AcDbPolyline
 90
        8
 70
     1
 43
0.0
 10
2183.378
 20
71.026
 10
2194.092
 20
92.45400000000001
 10
2179.808
 20
92.45400000000001
 10
2179.808
 20
96.026
 10
2197.663
 20
96.026
 10
2197.663
 20
92.45400000000001
 10
2186.95
 20
71.026
 10
2183.378
 20
71.026
  0
LWPOLYLINE
  5
A9
330
1F
100
AcDbEntity
  8
text2
100
AcDbPolyline
 90
       11
 70
     1
 43
0.0
 10
2862.858
 20
756.427
 10
2862.858
 20
760.0
 10
2866.43
 20
760.0
 10
2866.43
 20
777.855
 10
2862.858
 20
777.855
 10
2866.43
 20
781.427
 10
2870.0
 20
781.427
 10
2870.0
 20
760.0
 10
2873.572
 20
760.0
 10
2873.572
 20
756.427
 10
2862.858
 20
756.427
  0
LWPOLYLINE
  5
AA
330
1F
100
AcDbEntity
  8
text2
100
AcDbPolyline
 90
       11
 70
     1
 43
0.0
 10
97.428
 20
1908.572
 10
97.428
 20
1912.145
 10
101.0
 20
1912.145
 10
101.0
 20
1930.0
 10
97.428
 20
1930.0
 10
101.0
 20
1933.572
 10
104.57
 20
1933.572
 10
104.57
 20
1912.145
 10
108.142
 20
1912.145
 10
108.142
 20
1908.572
 10
97.428
 20
1908.572
  0
LWPOLYLINE
  5
AB
330
1F
100
AcDbEntity
  8
text2
100
AcDbPolyline
 90
       11
 70
     1
 43
0.0
 10
142.143
 20
2796.0
 10
142.143
 20
2799.573
 10
145.715
 20
2799.573
 10
145.715
 20
2817.428
 10
142.143
 20
2817.428
 10
145.715
 20
2821.0
 10
149.285
 20
2821.0
 10
149.285
 20
2799.573
 10
152.857
 20
2799.573
 10
152.857
 20
2796.0
 10
142.143
 20
2796.0
  0
LWPOLYLINE
  5
AC
330
1F
100
AcDbEntity
  8
text2
100
AcDbPolyline
 90
       26
 70
     1
 43
0.0
 10
2658.205
 20
88.94500000000001
 10
2665.345
 20
92.515
 10
2668.915
 20
88.94500000000001
 10
2683.205
 20
88.94500000000001
 10
2686.775
 20
92.515
 10
2686.775
 20
96.08500000000001
 10
2679.63
 20
103.23
 10
2672.49
 20
103.23
 10
2672.49
 20
110.37
 10
2679.63
 20
110.37
 10
2686.775
 20
117.515
 10
2686.775
 20
121.085
 10
2683.205
 20
124.655
 10
2668.915
 20
124.655
 10
2665.345
 20
121.085
 10
2658.205
 20
124.655
 10
2665.345
 20
131.8
 10
2686.775
 20
131.8
 10
2693.915
 20
124.655
 10
2693.915
 20
113.945
 10
2686.775
 20
106.8
 10
2693.915
 20
99.655
 10
2693.915
 20
88.94500000000001
 10
2686.775
 20
81.8
 10
2665.345
 20
81.8
 10
2658.205
 20
88.94500000000001
  0
LWPOLYLINE
  5
AD
330
1F
100
AcDbEntity
  8
text2
100
AcDbPolyline
 90
        9
 70
     1
 43
0.0
 10
2934.0
 20
598.7
 10
2934.0
 20
656.7
 10
2865.2
 20
656.7
 10
2835.2
 20
644.2
 10
2826.0
 20
644.2
 10
2826.0
 20
611.2
 10
2835.2
 20
611.2
 10
2865.2
 20
598.7
 10
2934.0
 20
598.7
  0
LWPOLYLINE
  5
AE
330
1F
100
AcDbEntity
  8
text2
100
AcDbPolyline
 90
       27
 70
     1
 43
0.0
 10
2885.6
 20
557.7
 10
2869.2
 20
557.7
 10
2864.8
 20
557.0
 10
2860.1
 20
554.6
 10
2856.5
 20
551.0
 10
2854.1
 20
546.3000000000001
 10
2853.3
 20
541.2
 10
2854.1
 20
536.1
 10
2856.5
 20
531.4
 10
2860.1
 20
527.8
 10
2864.8
 20
525.4
 10
2869.2
 20
524.7
 10
2878.5
 20
524.7
 10
2901.0
 20
489.5
 10
2901.0
 20
480.3
 10
2901.7
 20
475.9
 10
2904.1
 20
471.2
 10
2907.7
 20
467.6
 10
2912.4
 20
465.2
 10
2917.5
 20
464.4
 10
2922.6
 20
465.2
 10
2927.3
 20
467.6
 10
2930.9
 20
471.2
 10
2933.3
 20
475.9
 10
2934.0
 20
480.3
 10
2934.0
 20
557.7
 10
2885.6
 20
557.7
  0
LWPOLYLINE
  5
AF
330
1F
100
AcDbEntity
  8
text2
100
AcDbPolyline
 90
       26
 70
     1
 43
0.0
 10
2934.0
 20
697.7
 10
2934.0
 20
775.1
 10
2933.3
 20
779.5
 10
2930.9
 20
784.2
 10
2927.3
 20
787.8000000000001
 10
2922.6
 20
790.2
 10
2917.5
 20
791.0
 10
2912.4
 20
790.2
 10
2907.7
 20
787.8000000000001
 10
2904.1
 20
784.2
 10
2901.7
 20
779.5
 10
2901.0
 20
775.1
 10
2901.0
 20
765.9
 10
2878.5
 20
730.7
 10
2869.2
 20
730.7
 10
2864.8
 20
730.0
 10
2860.1
 20
727.6
 10
2856.5
 20
724.0
 10
2854.1
 20
719.3000000000001
 10
2853.3
 20
714.2
 10
2854.1
 20
709.1
 10
2856.5
 20
704.4
 10
2860.1
 20
700.8000000000001
 10
2864.8
 20
698.4
 10
2869.2
 20
697.7
 10
2934.0
 20
697.7
  0
ENDSEC
  0
SECTION
  2
OBJECTS
  0
DICTIONARY
  5
C
330
0
100
AcDbDictionary
281
     1
  3
ACAD_GROUP
350
D
  3
ACAD_LAYOUT
350
1A
  3
ACAD_MLEADERSTYLE
350
B1
  3
ACAD_MLINESTYLE
350
17
  3
ACAD_PLOTSETTINGS
350
19
  3
ACAD_PLOTSTYLENAME
350
E
  3
ACAD_SCALELIST
350
3B
  3
ACAD_TABLESTYLE
350
B0
  3
ACAD_VISUALSTYLE
350
2A
  0
DICTIONARY
  5
D
102
{ACAD_REACTORS
330
C
102
}
330
C
100
AcDbDictionary
281
     1
  0
DICTIONARY
  5
1A
102
{ACAD_REACTORS
330
C
102
}
330
C
100
AcDbDictionary
281
     1
  3
Layout1
350
1E
  3
Layout2
350
26
  3
Model
350
22
  0
DICTIONARY
  5
B1
102
{ACAD_REACTORS
330
C
102
}
330
C
100
AcDbDictionary
281
     1
  0
DICTIONARY
  5
17
102
{ACAD_REACTORS
330
C
102
}
330
C
100
AcDbDictionary
281
     1
  3
Standard
350
18
  0
DICTIONARY
  5
19
102
{ACAD_REACTORS
330
C
102
}
330
C
100
AcDbDictionary
281
     1
  0
ACDBDICTIONARYWDFLT
  5
E
102
{ACAD_REACTORS
330
C
102
}
330
C
100
AcDbDictionary
281
     1
  3
Normal
350
F
100
AcDbDictionaryWithDefault
340
F
  0
DICTIONARY
  5
3B
102
{ACAD_REACTORS
330
C
102
}
330
C
100
AcDbDictionary
281
     1
  3
A0
350
3C
  3
A1
350
3D
  3
A2
350
3E
  3
A3
350
3F
  3
A4
350
40
  3
A5
350
41
  3
A6
350
42
  3
A7
350
43
  3
A8
350
44
  3
A9
350
45
  3
B0
350
46
  3
B1
350
47
  3
B2
350
48
  3
B3
350
49
  3
B4
350
4A
  3
B5
350
4B
  3
B6
350
4C
  3
B7
350
4D
  3
B8
350
4E
  3
B9
350
4F
  3
C0
350
50
  3
C1
350
51
  3
C2
350
52
  3
C3
350
53
  3
C4
350
54
  3
C5
350
55
  3
C6
350
56
  3
C7
350
57
  3
C8
350
58
  3
C9
350
59
  3
D0
350
5A
  3
D1
350
5B
  3
D2
350
5C
  0
DICTIONARY
  5
B0
102
{ACAD_REACTORS
330
C
102
}
330
C
100
AcDbDictionary
281
     1
  0
DICTIONARY
  5
2A
102
{ACAD_REACTORS
330
C
102
}
330
C
100
AcDbDictionary
281
     1
  3
2dWireframe
350
2F
  3
3D Hidden
350
31
  3
3dWireframe
350
30
  3
Basic
350
32
  3
Brighten
350
36
  3
ColorChange
350
3A
  3
Conceptual
350
34
  3
Dim
350
35
  3
Facepattern
350
39
  3
Flat
350
2B
  3
FlatWithEdges
350
2C
  3
Gouraud
350
2D
  3
GouraudWithEdges
350
2E
  3
Linepattern
350
38
  3
Realistic
350
33
  3
Thicken
350
37
  0
LAYOUT
  5
1E
102
{ACAD_REACTORS
330
1A
102
}
330
1A
100
AcDbPlotSettings
  1

  2
none_device
  4

  6

 40
0.0
 41
0.0
 42
0.0
 43
0.0
 44
0.0
 45
0.0
 46
0.0
 47
0.0
 48
0.0
 49
0.0
140
0.0
141
0.0
142
1.0
143
1.0
 70
   688
 72
     0
 73
     0
 74
     5
  7

 75
    16
 76
     0
 77
     2
 78
   300
147
1.0
148
0.0
149
0.0
100
AcDbLayout
  1
Layout1
 70
     1
 71
     1
 10
0.0
 20
0.0
 11
12.0
 21
9.0
 12
0.0
 22
0.0
 32
0.0
 14
1.000000000000000E+20
 24
1.000000000000000E+20
 34
1.000000000000000E+20
 15
-1.000000000000000E+20
 25
-1.000000000000000E+20
 35
-1.000000000000000E+20
146
0.0
 13
0.0
 23
0.0
 33
0.0
 16
1.0
 26
0.0
 36
0.0
 17
0.0
 27
1.0
 37
0.0
 76
     0
330
1B
  0
LAYOUT
  5
26
102
{ACAD_REACTORS
330
1A
102
}
330
1A
100
AcDbPlotSettings
  1

  2
none_device
  4

  6

 40
0.0
 41
0.0
 42
0.0
 43
0.0
 44
0.0
 45
0.0
 46
0.0
 47
0.0
 48
0.0
 49
0.0
140
0.0
141
0.0
142
1.0
143
1.0
 70
   688
 72
     0
 73
     0
 74
     5
  7

 75
    16
 76
     0
 77
     2
 78
   300
147
1.0
148
0.0
149
0.0
100
AcDbLayout
  1
Layout2
 70
     1
 71
     2
 10
0.0
 20
0.0
 11
0.0
 21
0.0
 12
0.0
 22
0.0
 32
0.0
 14
0.0
 24
0.0
 34
0.0
 15
0.0
 25
0.0
 35
0.0
146
0.0
 13
0.0
 23
0.0
 33
0.0
 16
1.0
 26
0.0
 36
0.0
 17
0.0
 27
1.0
 37
0.0
 76
     0
330
23
  0
LAYOUT
  5
22
102
{ACAD_REACTORS
330
1A
102
}
330
1A
100
AcDbPlotSettings
  1

  2
none_device
  4

  6

 40
0.0
 41
0.0
 42
0.0
 43
0.0
 44
0.0
 45
0.0
 46
0.0
 47
0.0
 48
0.0
 49
0.0
140
0.0
141
0.0
142
1.0
143
1.0
 70
  1712
 72
     0
 73
     0
 74
     0
  7

 75
     0
 76
     0
 77
     2
 78
   300
147
1.0
148
0.0
149
0.0
100
AcDbLayout
  1
Model
 70
     1
 71
     0
 10
0.0
 20
0.0
 11
12.0
 21
9.0
 12
0.0
 22
0.0
 32
0.0
 14
1.000000000000000E+20
 24
1.000000000000000E+20
 34
1.000000000000000E+20
 15
-1.000000000000000E+20
 25
-1.000000000000000E+20
 35
-1.000000000000000E+20
146
0.0
 13
0.0
 23
0.0
 33
0.0
 16
1.0
 26
0.0
 36
0.0
 17
0.0
 27
1.0
 37
0.0
 76
     0
330
1F
331
29
  0
MLINESTYLE
  5
18
102
{ACAD_REACTORS
330
17
102
}
330
17
100
AcDbMlineStyle
  2
Standard
 70
     0
  3

 62
   256
 51
90.0
 52
90.0
 71
     2
 49
0.5
 62
   256
  6
BYLAYER
 49
-0.5
 62
   256
  6
BYLAYER
  0
ACDBPLACEHOLDER
  5
F
102
{ACAD_REACTORS
330
E
102
}
330
E
  0
SCALE
  5
3C
102
{ACAD_REACTORS
330
3B
102
}
330
3B
100
AcDbScale
 70
     0
300
1:1
140
1.0
141
1.0
290
     1
  0
SCALE
  5
3D
102
{ACAD_REACTORS
330
3B
102
}
330
3B
100
AcDbScale
 70
     0
300
1:2
140
1.0
141
2.0
290
     0
  0
SCALE
  5
3E
102
{ACAD_REACTORS
330
3B
102
}
330
3B
100
AcDbScale
 70
     0
300
1:4
140
1.0
141
4.0
290
     0
  0
SCALE
  5
3F
102
{ACAD_REACTORS
330
3B
102
}
330
3B
100
AcDbScale
 70
     0
300
1:5
140
1.0
141
5.0
290
     0
  0
SCALE
  5
40
102
{ACAD_REACTORS
330
3B
102
}
330
3B
100
AcDbScale
 70
     0
300
1:8
140
1.0
141
8.0
290
     0
  0
SCALE
  5
41
102
{ACAD_REACTORS
330
3B
102
}
330
3B
100
AcDbScale
 70
     0
300
1:10
140
1.0
141
10.0
290
     0
  0
SCALE
  5
42
102
{ACAD_REACTORS
330
3B
102
}
330
3B
100
AcDbScale
 70
     0
300
1:16
140
1.0
141
16.0
290
     0
  0
SCALE
  5
43
102
{ACAD_REACTORS
330
3B
102
}
330
3B
100
AcDbScale
 70
     0
300
1:20
140
1.0
141
20.0
290
     0
  0
SCALE
  5
44
102
{ACAD_REACTORS
330
3B
102
}
330
3B
100
AcDbScale
 70
     0
300
1:30
140
1.0
141
30.0
290
     0
  0
SCALE
  5
45
102
{ACAD_REACTORS
330
3B
102
}
330
3B
100
AcDbScale
 70
     0
300
1:40
140
1.0
141
40.0
290
     0
  0
SCALE
  5
46
102
{ACAD_REACTORS
330
3B
102
}
330
3B
100
AcDbScale
 70
     0
300
1:50
140
1.0
141
50.0
290
     0
  0
SCALE
  5
47
102
{ACAD_REACTORS
330
3B
102
}
330
3B
100
AcDbScale
 70
     0
300
1:100
140
1.0
141
100.0
290
     0
  0
SCALE
  5
48
102
{ACAD_REACTORS
330
3B
102
}
330
3B
100
AcDbScale
 70
     0
300
2:1
140
2.0
141
1.0
290
     0
  0
SCALE
  5
49
102
{ACAD_REACTORS
330
3B
102
}
330
3B
100
AcDbScale
 70
     0
300
4:1
140
4.0
141
1.0
290
     0
  0
SCALE
  5
4A
102
{ACAD_REACTORS
330
3B
102
}
330
3B
100
AcDbScale
 70
     0
300
8:1
140
8.0
141
1.0
290
     0
  0
SCALE
  5
4B
102
{ACAD_REACTORS
330
3B
102
}
330
3B
100
AcDbScale
 70
     0
300
10:1
140
10.0
141
1.0
290
     0
  0
SCALE
  5
4C
102
{ACAD_REACTORS
330
3B
102
}
330
3B
100
AcDbScale
 70
     0
300
100:1
140
100.0
141
1.0
290
     0
  0
SCALE
  5
4D
102
{ACAD_REACTORS
330
3B
102
}
330
3B
100
AcDbScale
 70
     0
300
1/128" = 1'-0"
140
0.0078125
141
12.0
290
     0
  0
SCALE
  5
4E
102
{ACAD_REACTORS
330
3B
102
}
330
3B
100
AcDbScale
 70
     0
300
1/64" = 1'-0"
140
0.015625
141
12.0
290
     0
  0
SCALE
  5
4F
102
{ACAD_REACTORS
330
3B
102
}
330
3B
100
AcDbScale
 70
     0
300
1/32" = 1'-0"
140
0.03125
141
12.0
290
     0
  0
SCALE
  5
50
102
{ACAD_REACTORS
330
3B
102
}
330
3B
100
AcDbScale
 70
     0
300
1/16" = 1'-0"
140
0.0625
141
12.0
290
     0
  0
SCALE
  5
51
102
{ACAD_REACTORS
330
3B
102
}
330
3B
100
AcDbScale
 70
     0
300
3/32" = 1'-0"
140
0.09375
141
12.0
290
     0
  0
SCALE
  5
52
102
{ACAD_REACTORS
330
3B
102
}
330
3B
100
AcDbScale
 70
     0
300
1/8" = 1'-0"
140
0.125
141
12.0
290
     0
  0
SCALE
  5
53
102
{ACAD_REACTORS
330
3B
102
}
330
3B
100
AcDbScale
 70
     0
300
3/16" = 1'-0"
140
0.1875
141
12.0
290
     0
  0
SCALE
  5
54
102
{ACAD_REACTORS
330
3B
102
}
330
3B
100
AcDbScale
 70
     0
300
1/4" = 1'-0"
140
0.25
141
12.0
290
     0
  0
SCALE
  5
55
102
{ACAD_REACTORS
330
3B
102
}
330
3B
100
AcDbScale
 70
     0
300
3/8" = 1'-0"
140
0.375
141
12.0
290
     0
  0
SCALE
  5
56
102
{ACAD_REACTORS
330
3B
102
}
330
3B
100
AcDbScale
 70
     0
300
1/2" = 1'-0"
140
0.5
141
12.0
290
     0
  0
SCALE
  5
57
102
{ACAD_REACTORS
330
3B
102
}
330
3B
100
AcDbScale
 70
     0
300
3/4" = 1'-0"
140
0.75
141
12.0
290
     0
  0
SCALE
  5
58
102
{ACAD_REACTORS
330
3B
102
}
330
3B
100
AcDbScale
 70
     0
300
1" = 1'-0"
140
1.0
141
12.0
290
     0
  0
SCALE
  5
59
102
{ACAD_REACTORS
330
3B
102
}
330
3B
100
AcDbScale
 70
     0
300
1-1/2" = 1'-0"
140
1.5
141
12.0
290
     0
  0
SCALE
  5
5A
102
{ACAD_REACTORS
330
3B
102
}
330
3B
100
AcDbScale
 70
     0
300
3" = 1'-0"
140
3.0
141
12.0
290
     0
  0
SCALE
  5
5B
102
{ACAD_REACTORS
330
3B
102
}
330
3B
100
AcDbScale
 70
     0
300
6" = 1'-0"
140
6.0
141
12.0
290
     0
  0
SCALE
  5
5C
102
{ACAD_REACTORS
330
3B
102
}
330
3B
100
AcDbScale
 70
     0
300
1'-0" = 1'-0"
140
12.0
141
12.0
290
     0
  0
VISUALSTYLE
  5
2F
102
{ACAD_REACTORS
330
2A
102
}
330
2A
100
AcDbVisualStyle
  2
2dWireframe
 70
     4
 71
     0
 72
     2
 73
     0
 90
        0
 40
-0.6
 41
-30.0
 62
     5
 63
     7
421
 16777215
 74
     1
 91
        4
 64
     7
 65
   257
 75
     1
175
     1
 42
1.0
 92
        0
 66
   257
 43
1.0
 76
     1
 77
     6
 78
     2
 67
     7
 79
     5
170
     0
171
     0
290
     0
174
     0
 93
        1
 44
0.0
173
     0
291
     0
 45
0.0
1001
ACAD
1000
AcDbSavedByObjectVersion
1070
     0
  0
VISUALSTYLE
  5
31
102
{ACAD_REACTORS
330
2A
102
}
330
2A
100
AcDbVisualStyle
  2
3D Hidden
 70
     6
 71
     1
 72
     2
 73
     2
 90
        0
 40
-0.6
 41
-30.0
 62
     5
 63
     7
421
 16777215
 74
     2
 91
        2
 64
     7
 65
   257
 75
     2
175
     1
 42
40.0
 92
        0
 66
   257
 43
1.0
 76
     1
 77
     6
 78
     2
 67
     7
 79
     3
170
     0
171
     0
290
     0
174
     0
 93
        1
 44
0.0
173
     0
291
     0
 45
0.0
1001
ACAD
1000
AcDbSavedByObjectVersion
1070
     0
  0
VISUALSTYLE
  5
30
102
{ACAD_REACTORS
330
2A
102
}
330
2A
100
AcDbVisualStyle
  2
3dWireframe
 70
     5
 71
     0
 72
     2
 73
     0
 90
        0
 40
-0.6
 41
-30.0
 62
     5
 63
     7
421
 16777215
 74
     1
 91
        4
 64
     7
 65
   257
 75
     1
175
     1
 42
1.0
 92
        0
 66
   257
 43
1.0
 76
     1
 77
     6
 78
     2
 67
     7
 79
     5
170
     0
171
     0
290
     0
174
     0
 93
        1
 44
0.0
173
     0
291
     0
 45
0.0
1001
ACAD
1000
AcDbSavedByObjectVersion
1070
     0
  0
VISUALSTYLE
  5
32
102
{ACAD_REACTORS
330
2A
102
}
330
2A
100
AcDbVisualStyle
  2
Basic
 70
     7
 71
     1
 72
     0
 73
     1
 90
        0
 40
-0.6
 41
-30.0
 62
     5
 63
     7
421
 16777215
 74
     0
 91
        4
 64
     7
 65
   257
 75
     1
175
     1
 42
1.0
 92
        8
 66
     7
 43
1.0
 76
     1
 77
     6
 78
     2
 67
     7
 79
     5
170
     0
171
     0
290
     0
174
     0
 93
        1
 44
0.0
173
     0
291
     1
 45
0.0
1001
ACAD
1000
AcDbSavedByObjectVersion
1070
     0
  0
VISUALSTYLE
  5
36
102
{ACAD_REACTORS
330
2A
102
}
330
2A
100
AcDbVisualStyle
  2
Brighten
 70
    12
 71
     2
 72
     2
 73
     0
 90
        0
 40
-0.6
 41
-30.0
 62
     5
 63
     7
421
 16777215
 74
     1
 91
        4
 64
     7
 65
   257
 75
     1
175
     1
 42
1.0
 92
        8
 66
     7
 43
1.0
 76
     1
 77
     6
 78
     2
 67
     7
 79
     5
170
     0
171
     0
290
     0
174
     0
 93
        1
 44
50.0
173
     0
291
     1
 45
0.0
1001
ACAD
1000
AcDbSavedByObjectVersion
1070
     0
  0
VISUALSTYLE
  5
3A
102
{ACAD_REACTORS
330
2A
102
}
330
2A
100
AcDbVisualStyle
  2
ColorChange
 70
    16
 71
     2
 72
     2
 73
     3
 90
        0
 40
-0.6
 41
-30.0
 62
     5
 63
     8
421
  8421504
 74
     1
 91
        4
 64
     7
 65
   257
 75
     1
175
     1
 42
1.0
 92
        8
 66
     8
424
  8421504
 43
1.0
 76
     1
 77
     6
 78
     2
 67
     7
 79
     5
170
     0
171
     0
290
     0
174
     0
 93
        1
 44
0.0
173
     0
291
     1
 45
0.0
1001
ACAD
1000
AcDbSavedByObjectVersion
1070
     0
  0
VISUALSTYLE
  5
34
102
{ACAD_REACTORS
330
2A
102
}
330
2A
100
AcDbVisualStyle
  2
Conceptual
 70
     9
 71
     3
 72
     2
 73
     0
 90
        0
 40
-0.6
 41
-30.0
 62
     5
 63
     7
421
 16777215
 74
     2
 91
        2
 64
     7
 65
   257
 75
     1
175
     1
 42
40.0
 92
        8
 66
     7
 43
1.0
 76
     1
 77
     6
 78
     2
 67
     7
 79
     3
170
     0
171
     0
290
     0
174
     0
 93
        1
 44
0.0
173
     0
291
     0
 45
0.0
1001
ACAD
1000
AcDbSavedByObjectVersion
1070
     0
  0
VISUALSTYLE
  5
35
102
{ACAD_REACTORS
330
2A
102
}
330
2A
100
AcDbVisualStyle
  2
Dim
 70
    11
 71
     2
 72
     2
 73
     0
 90
        0
 40
-0.6
 41
-30.0
 62
     5
 63
     7
421
 16777215
 74
     1
 91
        4
 64
     7
 65
   257
 75
     1
175
     1
 42
1.0
 92
        8
 66
     7
 43
1.0
 76
     1
 77
     6
 78
     2
 67
     7
 79
     5
170
     0
171
     0
290
     0
174
     0
 93
        1
 44
-50.0
173
     0
291
     1
 45
0.0
1001
ACAD
1000
AcDbSavedByObjectVersion
1070
     0
  0
VISUALSTYLE
  5
39
102
{ACAD_REACTORS
330
2A
102
}
330
2A
100
AcDbVisualStyle
  2
Facepattern
 70
    15
 71
     2
 72
     2
 73
     0
 90
        0
 40
-0.6
 41
-30.0
 62
     5
 63
     7
421
 16777215
 74
     1
 91
        4
 64
     7
 65
   257
 75
     1
175
     1
 42
1.0
 92
        8
 66
     7
 43
1.0
 76
     1
 77
     6
 78
     2
 67
     7
 79
     5
170
     0
171
     0
290
     0
174
     0
 93
        1
 44
0.0
173
     0
291
     1
 45
0.0
1001
ACAD
1000
AcDbSavedByObjectVersion
1070
     0
  0
VISUALSTYLE
  5
2B
102
{ACAD_REACTORS
330
2A
102
}
330
2A
100
AcDbVisualStyle
  2
Flat
 70
     0
 71
     2
 72
     1
 73
     1
 90
        2
 40
-0.6
 41
30.0
 62
     5
 63
     7
421
 16777215
 74
     0
 91
        4
 64
     7
 65
   257
 75
     1
175
     1
 42
1.0
 92
        8
 66
     7
 43
1.0
 76
     1
 77
     6
 78
     2
 67
     7
 79
     5
170
     0
171
     0
290
     0
174
     0
 93
       13
 44
0.0
173
     0
291
     1
 45
0.0
1001
ACAD
1000
AcDbSavedByObjectVersion
1070
     0
  0
VISUALSTYLE
  5
2C
102
{ACAD_REACTORS
330
2A
102
}
330
2A
100
AcDbVisualStyle
  2
FlatWithEdges
 70
     1
 71
     2
 72
     1
 73
     1
 90
        2
 40
-0.6
 41
30.0
 62
     5
 63
     7
421
 16777215
 74
     1
 91
        4
 64
     7
 65
   257
 75
     1
175
     1
 42
1.0
 92
        0
 66
   257
 43
1.0
 76
     1
 77
     6
 78
     2
 67
     7
 79
     5
170
     0
171
     0
290
     0
174
     0
 93
       13
 44
0.0
173
     0
291
     1
 45
0.0
1001
ACAD
1000
AcDbSavedByObjectVersion
1070
     0
  0
VISUALSTYLE
  5
2D
102
{ACAD_REACTORS
330
2A
102
}
330
2A
100
AcDbVisualStyle
  2
Gouraud
 70
     2
 71
     2
 72
     2
 73
     1
 90
        2
 40
-0.6
 41
30.0
 62
     5
 63
     7
421
 16777215
 74
     0
 91
        4
 64
     7
 65
   257
 75
     1
175
     1
 42
1.0
 92
        0
 66
     7
 43
1.0
 76
     1
 77
     6
 78
     2
 67
     7
 79
     5
170
     0
171
     0
290
     0
174
     0
 93
       13
 44
0.0
173
     0
291
     1
 45
0.0
1001
ACAD
1000
AcDbSavedByObjectVersion
1070
     0
  0
VISUALSTYLE
  5
2E
102
{ACAD_REACTORS
330
2A
102
}
330
2A
100
AcDbVisualStyle
  2
GouraudWithEdges
 70
     3
 71
     2
 72
     2
 73
     1
 90
        2
 40
-0.6
 41
30.0
 62
     5
 63
     7
421
 16777215
 74
     1
 91
        4
 64
     7
 65
   257
 75
     1
175
     1
 42
1.0
 92
        0
 66
   257
 43
1.0
 76
     1
 77
     6
 78
     2
 67
     7
 79
     5
170
     0
171
     0
290
     0
174
     0
 93
       13
 44
0.0
173
     0
291
     1
 45
0.0
1001
ACAD
1000
AcDbSavedByObjectVersion
1070
     0
  0
VISUALSTYLE
  5
38
102
{ACAD_REACTORS
330
2A
102
}
330
2A
100
AcDbVisualStyle
  2
Linepattern
 70
    14
 71
     2
 72
     2
 73
     0
 90
        0
 40
-0.6
 41
-30.0
 62
     5
 63
     7
421
 16777215
 74
     1
 91
        4
 64
     7
 65
   257
 75
     7
175
     7
 42
1.0
 92
        8
 66
     7
 43
1.0
 76
     1
 77
     6
 78
     2
 67
     7
 79
     5
170
     0
171
     0
290
     0
174
     0
 93
        1
 44
0.0
173
     0
291
     1
 45
0.0
1001
ACAD
1000
AcDbSavedByObjectVersion
1070
     0
  0
VISUALSTYLE
  5
33
102
{ACAD_REACTORS
330
2A
102
}
330
2A
100
AcDbVisualStyle
  2
Realistic
 70
     8
 71
     2
 72
     2
 73
     0
 90
        0
 40
-0.6
 41
-30.0
 62
     5
 63
     7
421
 16777215
 74
     1
 91
        0
 64
     7
 65
   257
 75
     1
175
     1
 42
1.0
 92
        8
 66
     8
424
  7895160
 43
1.0
 76
     1
 77
     6
 78
     2
 67
     7
 79
     5
170
     0
171
     0
290
     0
174
     0
 93
       13
 44
0.0
173
     0
291
     0
 45
0.0
1001
ACAD
1000
AcDbSavedByObjectVersion
1070
     0
  0
VISUALSTYLE
  5
37
102
{ACAD_REACTORS
330
2A
102
}
330
2A
100
AcDbVisualStyle
  2
Thicken
 70
    13
 71
     2
 72
     2
 73
     0
 90
        0
 40
-0.6
 41
-30.0
 62
     5
 63
     7
421
 16777215
 74
     1
 91
        4
 64
     7
 65
   257
 75
     1
175
     1
 42
1.0
 92
       12
 66
     7
 43
1.0
 76
     1
 77
     6
 78
     2
 67
     7
 79
     5
170
     0
171
     0
290
     0
174
     0
 93
        1
 44
0.0
173
     0
291
     1
 45
0.0
1001
ACAD
1000
AcDbSavedByObjectVersion
1070
     0
  0
ENDSEC
  0
EOF
