  0
SECTION
  2
HEADER
  9
$ACADVER
  1
AC1018
  9
$ACADMAINTVER
 70
     0
  9
$DWGCODEPAGE
  3
ANSI_1252
  9
$INSBASE
 10
0.0
 20
0.0
 30
0.0
  9
$EXTMIN
 10
1.000000000000000E+20
 20
1.000000000000000E+20
 30
1.000000000000000E+20
  9
$EXTMAX
 10
-1.000000000000000E+20
 20
-1.000000000000000E+20
 30
-1.000000000000000E+20
  9
$LIMMIN
 10
0.0
 20
0.0
  9
$LIMMAX
 10
12.0
 20
9.0
  9
$ORTHOMODE
 70
     0
  9
$REGENMODE
 70
     1
  9
$FILLMODE
 70
     1
  9
$QTEXTMODE
 70
     0
  9
$MIRRTEXT
 70
     1
  9
$LTSCALE
 40
1.0
  9
$ATTMODE
 70
     1
  9
$TEXTSIZE
 40
0.2
  9
$TRACEWID
 40
0.05
  9
$TEXTSTYLE
  7
Standard
  9
$CLAYER
  8
0
  9
$CELTYPE
  6
ByLayer
  9
$CECOLOR
 62
   256
  9
$CELTSCALE
 40
1.0
  9
$DISPSILH
 70
     0
  9
$DIMSCALE
 40
1.0
  9
$DIMASZ
 40
0.18
  9
$DIMEXO
 40
0.0625
  9
$DIMDLI
 40
0.38
  9
$DIMRND
 40
0.0
  9
$DIMDLE
 40
0.0
  9
$DIMEXE
 40
0.18
  9
$DIMTP
 40
0.0
  9
$DIMTM
 40
0.0
  9
$DIMTXT
 40
0.18
  9
$DIMCEN
 40
0.09
  9
$DIMTSZ
 40
0.0
  9
$DIMTOL
 70
     0
  9
$DIMLIM
 70
     0
  9
$DIMTIH
 70
     1
  9
$DIMTOH
 70
     1
  9
$DIMSE1
 70
     0
  9
$DIMSE2
 70
     0
  9
$DIMTAD
 70
     0
  9
$DIMZIN
 70
     0
  9
$DIMBLK
  1

  9
$DIMASO
 70
     1
  9
$DIMSHO
 70
     1
  9
$DIMPOST
  1

  9
$DIMAPOST
  1

  9
$DIMALT
 70
     0
  9
$DIMALTD
 70
     2
  9
$DIMALTF
 40
25.4
  9
$DIMLFAC
 40
1.0
  9
$DIMTOFL
 70
     0
  9
$DIMTVP
 40
0.0
  9
$DIMTIX
 70
     0
  9
$DIMSOXD
 70
     0
  9
$DIMSAH
 70
     0
  9
$DIMBLK1
  1

  9
$DIMBLK2
  1

  9
$DIMSTYLE
  2
Standard
  9
$DIMCLRD
 70
     0
  9
$DIMCLRE
 70
     0
  9
$DIMCLRT
 70
     0
  9
$DIMTFAC
 40
1.0
  9
$DIMGAP
 40
0.09
  9
$DIMJUST
 70
     0
  9
$DIMSD1
 70
     0
  9
$DIMSD2
 70
     0
  9
$DIMTOLJ
 70
     1
  9
$DIMTZIN
 70
     0
  9
$DIMALTZ
 70
     0
  9
$DIMALTTZ
 70
     0
  9
$DIMUPT
 70
     0
  9
$DIMDEC
 70
     4
  9
$DIMTDEC
 70
     4
  9
$DIMALTU
 70
     2
  9
$DIMALTTD
 70
     2
  9
$DIMTXSTY
  7
Standard
  9
$DIMAUNIT
 70
     0
  9
$DIMADEC
 70
     0
  9
$DIMALTRND
 40
0.0
  9
$DIMAZIN
 70
     0
  9
$DIMDSEP
 70
    46
  9
$DIMATFIT
 70
     3
  9
$DIMFRAC
 70
     0
  9
$DIMLDRBLK
  1

  9
$DIMLUNIT
 70
     2
  9
$DIMLWD
 70
    -2
  9
$DIMLWE
 70
    -2
  9
$DIMTMOVE
 70
     0
  9
$LUNITS
 70
     2
  9
$LUPREC
 70
     4
  9
$SKETCHINC
 40
0.1
  9
$FILLETRAD
 40
0.5
  9
$AUNITS
 70
     0
  9
$AUPREC
 70
     0
  9
$MENU
  1
.
  9
$ELEVATION
 40
0.0
  9
$PELEVATION
 40
0.0
  9
$THICKNESS
 40
0.0
  9
$LIMCHECK
 70
     0
  9
$CHAMFERA
 40
0.5
  9
$CHAMFERB
 40
0.5
  9
$CHAMFERC
 40
1.0
  9
$CHAMFERD
 40
0.0
  9
$SKPOLY
 70
     0
  9
$TDCREATE
 40
2456253.586211042
  9
$TDUCREATE
 40
2456253.544544375
  9
$TDUPDATE
 40
2456253.586211053
  9
$TDUUPDATE
 40
2456253.544544387
  9
$TDINDWG
 40
0.0000000116
  9
$TDUSRTIMER
 40
0.0000000116
  9
$USRTIMER
 70
     1
  9
$ANGBASE
 50
0.0
  9
$ANGDIR
 70
     0
  9
$PDMODE
 70
     0
  9
$PDSIZE
 40
0.0
  9
$PLINEWID
 40
0.0
  9
$SPLFRAME
 70
     0
  9
$SPLINETYPE
 70
     6
  9
$SPLINESEGS
 70
     8
  9
$HANDSEED
  5
B2
  9
$SURFTAB1
 70
     6
  9
$SURFTAB2
 70
     6
  9
$SURFTYPE
 70
     6
  9
$SURFU
 70
     6
  9
$SURFV
 70
     6
  9
$UCSBASE
  2

  9
$UCSNAME
  2

  9
$UCSORG
 10
0.0
 20
0.0
 30
0.0
  9
$UCSXDIR
 10
1.0
 20
0.0
 30
0.0
  9
$UCSYDIR
 10
0.0
 20
1.0
 30
0.0
  9
$UCSORTHOREF
  2

  9
$UCSORTHOVIEW
 70
     0
  9
$UCSORGTOP
 10
0.0
 20
0.0
 30
0.0
  9
$UCSORGBOTTOM
 10
0.0
 20
0.0
 30
0.0
  9
$UCSORGLEFT
 10
0.0
 20
0.0
 30
0.0
  9
$UCSORGRIGHT
 10
0.0
 20
0.0
 30
0.0
  9
$UCSORGFRONT
 10
0.0
 20
0.0
 30
0.0
  9
$UCSORGBACK
 10
0.0
 20
0.0
 30
0.0
  9
$PUCSBASE
  2

  9
$PUCSNAME
  2

  9
$PUCSORG
 10
0.0
 20
0.0
 30
0.0
  9
$PUCSXDIR
 10
1.0
 20
0.0
 30
0.0
  9
$PUCSYDIR
 10
0.0
 20
1.0
 30
0.0
  9
$PUCSORTHOREF
  2

  9
$PUCSORTHOVIEW
 70
     0
  9
$PUCSORGTOP
 10
0.0
 20
0.0
 30
0.0
  9
$PUCSORGBOTTOM
 10
0.0
 20
0.0
 30
0.0
  9
$PUCSORGLEFT
 10
0.0
 20
0.0
 30
0.0
  9
$PUCSORGRIGHT
 10
0.0
 20
0.0
 30
0.0
  9
$PUCSORGFRONT
 10
0.0
 20
0.0
 30
0.0
  9
$PUCSORGBACK
 10
0.0
 20
0.0
 30
0.0
  9
$USERI1
 70
     0
  9
$USERI2
 70
     0
  9
$USERI3
 70
     0
  9
$USERI4
 70
     0
  9
$USERI5
 70
     0
  9
$USERR1
 40
0.0
  9
$USERR2
 40
0.0
  9
$USERR3
 40
0.0
  9
$USERR4
 40
0.0
  9
$USERR5
 40
0.0
  9
$WORLDVIEW
 70
     1
  9
$SHADEDGE
 70
     3
  9
$SHADEDIF
 70
    70
  9
$TILEMODE
 70
     1
  9
$MAXACTVP
 70
    64
  9
$PINSBASE
 10
0.0
 20
0.0
 30
0.0
  9
$PLIMCHECK
 70
     0
  9
$PEXTMIN
 10
1.000000000000000E+20
 20
1.000000000000000E+20
 30
1.000000000000000E+20
  9
$PEXTMAX
 10
-1.000000000000000E+20
 20
-1.000000000000000E+20
 30
-1.000000000000000E+20
  9
$PLIMMIN
 10
0.0
 20
0.0
  9
$PLIMMAX
 10
12.0
 20
9.0
  9
$UNITMODE
 70
     0
  9
$VISRETAIN
 70
     1
  9
$PLINEGEN
 70
     0
  9
$PSLTSCALE
 70
     1
  9
$TREEDEPTH
 70
  3020
  9
$CMLSTYLE
  2
Standard
  9
$CMLJUST
 70
     0
  9
$CMLSCALE
 40
1.0
  9
$PROXYGRAPHICS
 70
     1
  9
$MEASUREMENT
 70
     0
  9
$CELWEIGHT
370
    -1
  9
$ENDCAPS
280
     0
  9
$JOINSTYLE
280
     0
  9
$LWDISPLAY
290
     0
  9
$INSUNITS
 70
    13
  9
$HYPERLINKBASE
  1

  9
$STYLESHEET
  1

  9
$XEDIT
290
     1
  9
$CEPSNTYPE
380
     0
  9
$PSTYLEMODE
290
     1
  9
$FINGERPRINTGUID
  2
{87CC7C5A-3B76-4CCE-8100-ABAC4FE9E634}
  9
$VERSIONGUID
  2
{FAEB1C32-E019-11D5-929B-00C0DF256EC4}
  9
$EXTNAMES
290
     1
  9
$PSVPSCALE
 40
0.0
  9
$OLESTARTUP
290
     0
  9
$SORTENTS
280
   127
  9
$INDEXCTL
280
     0
  9
$HIDETEXT
280
     1
  9
$XCLIPFRAME
290
     0
  9
$HALOGAP
280
     0
  9
$OBSCOLOR
 70
   257
  9
$OBSLTYPE
280
     0
  9
$INTERSECTIONDISPLAY
280
     0
  9
$INTERSECTIONCOLOR
 70
   257
  9
$DIMASSOC
280
     2
  9
$PROJECTNAME
  1

  0
ENDSEC
  0
SECTION
  2
CLASSES
  0
CLASS
  1
ACDBDICTIONARYWDFLT
  2
AcDbDictionaryWithDefault
  3
ObjectDBX Classes
 90
        0
 91
        3
280
     0
281
     0
  0
CLASS
  1
VISUALSTYLE
  2
AcDbVisualStyle
  3
ObjectDBX Classes
 90
     4095
 91
        3
280
     0
281
     0
  0
CLASS
  1
SCALE
  2
AcDbScale
  3
ObjectDBX Classes
 90
     1153
 91
        3
280
     0
281
     0
  0
ENDSEC
  0
SECTION
  2
TABLES
  0
TABLE
  2
VPORT
  5
8
330
0
100
AcDbSymbolTable
 70
     1
  0
VPORT
  5
29
330
8
100
AcDbSymbolTableRecord
100
AcDbViewportTableRecord
  2
*Active
 70
     0
 10
0.0
 20
0.0
 11
1.0
 21
1.0
 12
10.42990654205607
 22
4.5
 13
0.0
 23
0.0
 14
0.5
 24
0.5
 15
0.5
 25
0.5
 16
0.0
 26
0.0
 36
1.0
 17
0.0
 27
0.0
 37
0.0
 40
9.0
 41
1.972972972850329
 42
50.0
 43
0.0
 44
0.0
 50
0.0
 51
0.0
 71
     0
 72
   100
 73
     1
 74
     3
 75
     0
 76
     0
 77
     0
 78
     0
281
     0
 65
     1
110
0.0
120
0.0
130
0.0
111
1.0
121
0.0
131
0.0
112
0.0
122
1.0
132
0.0
 79
     0
146
0.0
  0
ENDTAB
  0
TABLE
  2
LTYPE
  5
5
330
0
100
AcDbSymbolTable
 70
     1
  0
LTYPE
  5
14
330
5
100
AcDbSymbolTableRecord
100
AcDbLinetypeTableRecord
  2
ByBlock
 70
     0
  3

 72
    65
 73
     0
 40
0.0
  0
LTYPE
  5
15
330
5
100
AcDbSymbolTableRecord
100
AcDbLinetypeTableRecord
  2
ByLayer
 70
     0
  3

 72
    65
 73
     0
 40
0.0
  0
LTYPE
  5
16
330
5
100
AcDbSymbolTableRecord
100
AcDbLinetypeTableRecord
  2
Continuous
 70
     0
  3
Solid line
 72
    65
 73
     0
 40
0.0
  0
ENDTAB
  0
TABLE
  2
LAYER
  5
2
330
0
100
AcDbSymbolTable
 70
     2
  0
LAYER
  5
10
330
2
100
AcDbSymbolTableRecord
100
AcDbLayerTableRecord
  2
0
 70
     0
 62
     7
  6
Continuous
370
    -3
390
F
  0
LAYER
  5
5E
330
2
100
AcDbSymbolTableRecord
100
AcDbLayerTableRecord
  2
text2
 70
     0
 62
    16
420
  8388608
  6
Continuous
370
    -3
390
F
  0
ENDTAB
  0
TABLE
  2
STYLE
  5
3
330
0
100
AcDbSymbolTable
 70
     1
  0
STYLE
  5
11
330
3
100
AcDbSymbolTableRecord
100
AcDbTextStyleTableRecord
  2
Standard
 70
     0
 40
0.0
 41
1.0
 50
0.0
 71
     0
 42
0.2
  3
txt
  4

  0
ENDTAB
  0
TABLE
  2
VIEW
  5
6
330
0
100
AcDbSymbolTable
 70
     0
  0
ENDTAB
  0
TABLE
  2
UCS
  5
7
330
0
100
AcDbSymbolTable
 70
     0
  0
ENDTAB
  0
TABLE
  2
APPID
  5
9
330
0
100
AcDbSymbolTable
 70
     1
  0
APPID
  5
12
330
9
100
AcDbSymbolTableRecord
100
AcDbRegAppTableRecord
  2
ACAD
 70
     0
  0
ENDTAB
  0
TABLE
  2
DIMSTYLE
  5
A
330
0
100
AcDbSymbolTable
 70
     1
100
AcDbDimStyleTable
  0
DIMSTYLE
105
27
330
A
100
AcDbSymbolTableRecord
100
AcDbDimStyleTableRecord
  2
Standard
 70
     0
340
11
  0
ENDTAB
  0
TABLE
  2
BLOCK_RECORD
  5
1
330
0
100
AcDbSymbolTable
 70
     1
  0
BLOCK_RECORD
  5
1F
330
1
100
AcDbSymbolTableRecord
100
AcDbBlockTableRecord
  2
*Model_Space
340
22
  0
BLOCK_RECORD
  5
1B
330
1
100
AcDbSymbolTableRecord
100
AcDbBlockTableRecord
  2
*Paper_Space
340
1E
  0
BLOCK_RECORD
  5
23
330
1
100
AcDbSymbolTableRecord
100
AcDbBlockTableRecord
  2
*Paper_Space0
340
26
  0
ENDTAB
  0
ENDSEC
  0
SECTION
  2
BLOCKS
  0
BLOCK
  5
20
330
1F
100
AcDbEntity
  8
0
100
AcDbBlockBegin
  2
*Model_Space
 70
     0
 10
0.0
 20
0.0
 30
0.0
  3
*Model_Space
  1

  0
ENDBLK
  5
21
330
1F
100
AcDbEntity
  8
0
100
AcDbBlockEnd
  0
BLOCK
  5
1C
330
1B
100
AcDbEntity
 67
     1
  8
0
100
AcDbBlockBegin
  2
*Paper_Space
 70
     0
 10
0.0
 20
0.0
 30
0.0
  3
*Paper_Space
  1

  0
ENDBLK
  5
1D
330
1B
100
AcDbEntity
 67
     1
  8
0
100
AcDbBlockEnd
  0
BLOCK
  5
24
330
23
100
AcDbEntity
  8
0
100
AcDbBlockBegin
  2
*Paper_Space0
 70
     0
 10
0.0
 20
0.0
 30
0.0
  3
*Paper_Space0
  1

  0
ENDBLK
  5
25
330
23
100
AcDbEntity
  8
0
100
AcDbBlockEnd
  0
ENDSEC
  0
SECTION
  2
ENTITIES
  0
LWPOLYLINE
  5
5D
330
1F
100
AcDbEntity
  8
text2
100
AcDbPolyline
 90
        8
 70
     1
 43
0.0
 10
2177.143
 20
73.0
 10
2187.857
 20
94.428
 10
2173.573
 20
94.428
 10
2173.573
 20
98.0
 10
2191.428
 20
98.0
 10
2191.428
 20
94.428
 10
2180.715
 20
73.0
 10
2177.143
 20
73.0
  0
LWPOLYLINE
  5
5F
330
1F
100
AcDbEntity
  8
text2
100
AcDbPolyline
 90
       11
 70
     1
 43
0.0
 10
2866.286
 20
754.731
 10
2866.286
 20
758.304
 10
2869.858
 20
758.304
 10
2869.858
 20
776.159
 10
2866.286
 20
776.159
 10
2869.858
 20
779.731
 10
2873.428
 20
779.731
 10
2873.428
 20
758.304
 10
2877.0
 20
758.304
 10
2877.0
 20
754.731
 10
2866.286
 20
754.731
  0
LWPOLYLINE
  5
60
330
1F
100
AcDbEntity
  8
text2
100
AcDbPolyline
 90
       11
 70
     1
 43
0.0
 10
81.57300000000001
 20
1916.427
 10
81.57300000000001
 20
1920.0
 10
85.145
 20
1920.0
 10
85.145
 20
1937.855
 10
81.57300000000001
 20
1937.855
 10
85.145
 20
1941.427
 10
88.715
 20
1941.427
 10
88.715
 20
1920.0
 10
92.287
 20
1920.0
 10
92.287
 20
1916.427
 10
81.57300000000001
 20
1916.427
  0
LWPOLYLINE
  5
61
330
1F
100
AcDbEntity
  8
text2
100
AcDbPolyline
 90
       11
 70
     1
 43
0.0
 10
147.998
 20
2791.717
 10
147.998
 20
2795.29
 10
151.57
 20
2795.29
 10
151.57
 20
2813.145
 10
147.998
 20
2813.145
 10
151.57
 20
2816.717
 10
155.14
 20
2816.717
 10
155.14
 20
2795.29
 10
158.712
 20
2795.29
 10
158.712
 20
2791.717
 10
147.998
 20
2791.717
  0
LWPOLYLINE
  5
62
330
1F
100
AcDbEntity
  8
text2
100
AcDbPolyline
 90
       26
 70
     1
 43
0.0
 10
2934.0
 20
697.7
 10
2934.0
 20
775.1
 10
2933.3
 20
779.5
 10
2930.9
 20
784.2
 10
2927.3
 20
787.8000000000001
 10
2922.6
 20
790.2
 10
2917.5
 20
791.0
 10
2912.4
 20
790.2
 10
2907.7
 20
787.8000000000001
 10
2904.1
 20
784.2
 10
2901.7
 20
779.5
 10
2901.0
 20
775.1
 10
2901.0
 20
765.9
 10
2878.5
 20
730.7
 10
2869.2
 20
730.7
 10
2864.8
 20
730.0
 10
2860.1
 20
727.6
 10
2856.5
 20
724.0
 10
2854.1
 20
719.3000000000001
 10
2853.3
 20
714.2
 10
2854.1
 20
709.1
 10
2856.5
 20
704.4
 10
2860.1
 20
700.8000000000001
 10
2864.8
 20
698.4
 10
2869.2
 20
697.7
 10
2934.0
 20
697.7
  0
LWPOLYLINE
  5
63
330
1F
100
AcDbEntity
  8
text2
100
AcDbPolyline
 90
       27
 70
     1
 43
0.0
 10
2885.6
 20
557.7
 10
2869.2
 20
557.7
 10
2864.8
 20
557.0
 10
2860.1
 20
554.6
 10
2856.5
 20
551.0
 10
2854.1
 20
546.3000000000001
 10
2853.3
 20
541.2
 10
2854.1
 20
536.1
 10
2856.5
 20
531.4
 10
2860.1
 20
527.8
 10
2864.8
 20
525.4
 10
2869.2
 20
524.7
 10
2878.5
 20
524.7
 10
2901.0
 20
489.5
 10
2901.0
 20
480.3
 10
2901.7
 20
475.9
 10
2904.1
 20
471.2
 10
2907.7
 20
467.6
 10
2912.4
 20
465.2
 10
2917.5
 20
464.4
 10
2922.6
 20
465.2
 10
2927.3
 20
467.6
 10
2930.9
 20
471.2
 10
2933.3
 20
475.9
 10
2934.0
 20
480.3
 10
2934.0
 20
557.7
 10
2885.6
 20
557.7
  0
LWPOLYLINE
  5
64
330
1F
100
AcDbEntity
  8
text2
100
AcDbPolyline
 90
        9
 70
     1
 43
0.0
 10
2934.0
 20
598.7
 10
2934.0
 20
656.7
 10
2865.2
 20
656.7
 10
2835.2
 20
644.2
 10
2826.0
 20
644.2
 10
2826.0
 20
611.2
 10
2835.2
 20
611.2
 10
2865.2
 20
598.7
 10
2934.0
 20
598.7
  0
LWPOLYLINE
  5
65
330
1F
100
AcDbEntity
  8
text2
100
AcDbPolyline
 90
       16
 70
     1
 43
0.0
 10
2658.721
 20
84.32600000000001
 10
2658.721
 20
95.041
 10
2687.291
 20
116.471
 10
2687.291
 20
123.611
 10
2683.721
 20
127.181
 10
2669.431
 20
127.181
 10
2665.861
 20
123.611
 10
2658.721
 20
127.181
 10
2665.861
 20
134.326
 10
2687.291
 20
134.326
 10
2694.431
 20
127.181
 10
2694.431
 20
112.896
 10
2665.861
 20
91.471
 10
2694.431
 20
91.471
 10
2694.431
 20
84.32600000000001
 10
2658.721
 20
84.32600000000001
  0
LWPOLYLINE
  5
66
330
1F
100
AcDbEntity
  8
text2
100
AcDbPolyline
 90
        4
 70
     1
 43
0.0
 10
0.0
 20
0.0
 10
0.0
 20
3000.0
 10
3000.0
 20
3000.0
 10
3000.0
 20
0.0
  0
LWPOLYLINE
  5
67
330
1F
100
AcDbEntity
  8
text2
100
AcDbPolyline
 90
        4
 70
     1
 43
0.0
 10
2739.0
 20
2839.0
 10
2739.0
 20
2934.0
 10
2834.0
 20
2934.0
 10
2834.0
 20
2839.0
  0
LWPOLYLINE
  5
68
330
1F
100
AcDbEntity
  8
text2
100
AcDbPolyline
 90
        4
 70
     1
 43
0.0
 10
2589.0
 20
2839.0
 10
2589.0
 20
2934.0
 10
2684.0
 20
2934.0
 10
2684.0
 20
2839.0
  0
LWPOLYLINE
  5
69
330
1F
100
AcDbEntity
  8
text2
100
AcDbPolyline
 90
        4
 70
     1
 43
0.0
 10
2439.0
 20
2839.0
 10
2439.0
 20
2934.0
 10
2534.0
 20
2934.0
 10
2534.0
 20
2839.0
  0
LWPOLYLINE
  5
6A
330
1F
100
AcDbEntity
  8
text2
100
AcDbPolyline
 90
        4
 70
     1
 43
0.0
 10
2289.0
 20
2839.0
 10
2289.0
 20
2934.0
 10
2384.0
 20
2934.0
 10
2384.0
 20
2839.0
  0
LWPOLYLINE
  5
6B
330
1F
100
AcDbEntity
  8
text2
100
AcDbPolyline
 90
        4
 70
     1
 43
0.0
 10
2139.0
 20
2839.0
 10
2139.0
 20
2934.0
 10
2234.0
 20
2934.0
 10
2234.0
 20
2839.0
  0
LWPOLYLINE
  5
6C
330
1F
100
AcDbEntity
  8
text2
100
AcDbPolyline
 90
        4
 70
     1
 43
0.0
 10
1989.0
 20
2839.0
 10
1989.0
 20
2934.0
 10
2084.0
 20
2934.0
 10
2084.0
 20
2839.0
  0
LWPOLYLINE
  5
6D
330
1F
100
AcDbEntity
  8
text2
100
AcDbPolyline
 90
        4
 70
     1
 43
0.0
 10
2225.48
 20
146.404
 10
2211.195
 20
146.404
 10
2225.48
 20
160.689
 10
2225.48
 20
146.404
  0
LWPOLYLINE
  5
6E
330
1F
100
AcDbEntity
  8
text2
100
AcDbPolyline
 90
       12
 70
     1
 43
0.0
 10
2225.48
 20
121.404
 10
2225.48
 20
139.259
 10
2204.055
 20
139.259
 10
2204.055
 20
146.404
 10
2225.48
 20
171.404
 10
2232.625
 20
171.404
 10
2232.625
 20
146.404
 10
2239.765
 20
146.404
 10
2239.765
 20
139.259
 10
2232.625
 20
139.259
 10
2232.625
 20
121.404
 10
2225.48
 20
121.404
  0
LWPOLYLINE
  5
6F
330
1F
100
AcDbEntity
  8
text2
100
AcDbPolyline
 90
        7
 70
     1
 43
0.0
 10
2161.195
 20
149.974
 10
2179.055
 20
149.974
 10
2182.625
 20
153.549
 10
2182.625
 20
160.689
 10
2179.055
 20
164.259
 10
2161.195
 20
164.259
 10
2161.195
 20
149.974
  0
LWPOLYLINE
  5
70
330
1F
100
AcDbEntity
  8
text2
100
AcDbPolyline
 90
        9
 70
     1
 43
0.0
 10
2154.055
 20
121.404
 10
2154.055
 20
171.404
 10
2182.625
 20
171.404
 10
2189.765
 20
164.259
 10
2189.765
 20
149.974
 10
2182.625
 20
142.834
 10
2161.195
 20
142.834
 10
2161.195
 20
121.404
 10
2154.055
 20
121.404
  0
LWPOLYLINE
  5
71
330
1F
100
AcDbEntity
  8
text2
100
AcDbPolyline
 90
        9
 70
     1
 43
0.0
 10
284.373
 20
1954.524
 10
284.373
 20
1975.952
 10
277.231
 20
1975.952
 10
277.231
 20
1979.524
 10
295.086
 20
1979.524
 10
295.086
 20
1975.952
 10
287.943
 20
1975.952
 10
287.943
 20
1954.524
 10
284.373
 20
1954.524
  0
LWPOLYLINE
  5
72
330
1F
100
AcDbEntity
  8
text2
100
AcDbPolyline
 90
       13
 70
     1
 43
0.0
 10
252.23
 20
1958.097
 10
252.23
 20
1979.524
 10
255.801
 20
1979.524
 10
255.801
 20
1959.881
 10
257.586
 20
1958.097
 10
264.73
 20
1958.097
 10
266.515
 20
1959.881
 10
266.515
 20
1979.524
 10
270.086
 20
1979.524
 10
270.086
 20
1958.097
 10
266.515
 20
1954.524
 10
255.801
 20
1954.524
 10
252.23
 20
1958.097
  0
LWPOLYLINE
  5
73
330
1F
100
AcDbEntity
  8
text2
100
AcDbPolyline
 90
        9
 70
     1
 43
0.0
 10
232.586
 20
1958.097
 10
239.73
 20
1958.097
 10
241.515
 20
1959.881
 10
241.515
 20
1974.167
 10
239.73
 20
1975.952
 10
232.586
 20
1975.952
 10
230.801
 20
1974.167
 10
230.801
 20
1959.881
 10
232.586
 20
1958.097
  0
LWPOLYLINE
  5
74
330
1F
100
AcDbEntity
  8
text2
100
AcDbPolyline
 90
        9
 70
     1
 43
0.0
 10
227.23
 20
1958.097
 10
227.23
 20
1975.952
 10
230.801
 20
1979.524
 10
241.515
 20
1979.524
 10
245.085
 20
1975.952
 10
245.085
 20
1958.097
 10
241.515
 20
1954.524
 10
230.801
 20
1954.524
 10
227.23
 20
1958.097
  0
LWPOLYLINE
  5
75
330
1F
100
AcDbEntity
  8
text2
100
AcDbPolyline
 90
       11
 70
     1
 43
0.0
 10
177.23
 20
1954.524
 10
177.23
 20
1979.524
 10
193.3
 20
1979.524
 10
193.3
 20
1975.952
 10
180.801
 20
1975.952
 10
180.801
 20
1968.809
 10
187.943
 20
1968.809
 10
187.943
 20
1965.239
 10
180.801
 20
1965.239
 10
180.801
 20
1954.524
 10
177.23
 20
1954.524
  0
LWPOLYLINE
  5
76
330
1F
100
AcDbEntity
  8
text2
100
AcDbPolyline
 90
       13
 70
     1
 43
0.0
 10
155.801
 20
1954.524
 10
155.801
 20
1958.097
 10
159.373
 20
1958.097
 10
159.373
 20
1975.952
 10
155.801
 20
1975.952
 10
155.801
 20
1979.524
 10
166.515
 20
1979.524
 10
166.515
 20
1975.952
 10
162.943
 20
1975.952
 10
162.943
 20
1958.097
 10
166.515
 20
1958.097
 10
166.515
 20
1954.524
 10
155.801
 20
1954.524
  0
LWPOLYLINE
  5
77
330
1F
100
AcDbEntity
  8
text2
100
AcDbPolyline
 90
       19
 70
     1
 43
0.0
 10
105.145
 20
1964.145
 10
112.285
 20
1967.715
 10
115.855
 20
1964.145
 10
130.145
 20
1964.145
 10
133.715
 20
1967.715
 10
133.715
 20
1978.43
 10
130.145
 20
1982.0
 10
105.145
 20
1982.0
 10
105.145
 20
2007.0
 10
140.855
 20
2007.0
 10
140.855
 20
1999.855
 10
112.285
 20
1999.855
 10
112.285
 20
1989.145
 10
133.715
 20
1989.145
 10
140.855
 20
1982.0
 10
140.855
 20
1964.145
 10
133.715
 20
1957.0
 10
112.285
 20
1957.0
 10
105.145
 20
1964.145
  0
LWPOLYLINE
  5
78
330
1F
100
AcDbEntity
  8
text2
100
AcDbPolyline
 90
        7
 70
     1
 43
0.0
 10
62.285
 20
1985.57
 10
80.145
 20
1985.57
 10
83.715
 20
1989.145
 10
83.715
 20
1996.285
 10
80.145
 20
1999.855
 10
62.285
 20
1999.855
 10
62.285
 20
1985.57
  0
LWPOLYLINE
  5
79
330
1F
100
AcDbEntity
  8
text2
100
AcDbPolyline
 90
        9
 70
     1
 43
0.0
 10
55.145
 20
1957.0
 10
55.145
 20
2007.0
 10
83.715
 20
2007.0
 10
90.855
 20
1999.855
 10
90.855
 20
1985.57
 10
83.715
 20
1978.43
 10
62.285
 20
1978.43
 10
62.285
 20
1957.0
 10
55.145
 20
1957.0
  0
LWPOLYLINE
  5
7A
330
1F
100
AcDbEntity
  8
text2
100
AcDbPolyline
 90
        4
 70
     1
 43
0.0
 10
1289.0
 20
66.0
 10
1289.0
 20
161.0
 10
1384.0
 20
161.0
 10
1384.0
 20
66.0
  0
LWPOLYLINE
  5
7B
330
1F
100
AcDbEntity
  8
text2
100
AcDbPolyline
 90
        4
 70
     1
 43
0.0
 10
1439.0
 20
66.0
 10
1439.0
 20
161.0
 10
1534.0
 20
161.0
 10
1534.0
 20
66.0
  0
LWPOLYLINE
  5
7C
330
1F
100
AcDbEntity
  8
text2
100
AcDbPolyline
 90
        4
 70
     1
 43
0.0
 10
1589.0
 20
66.0
 10
1589.0
 20
161.0
 10
1684.0
 20
161.0
 10
1684.0
 20
66.0
  0
LWPOLYLINE
  5
7D
330
1F
100
AcDbEntity
  8
text2
100
AcDbPolyline
 90
        4
 70
     1
 43
0.0
 10
1739.0
 20
66.0
 10
1739.0
 20
161.0
 10
1834.0
 20
161.0
 10
1834.0
 20
66.0
  0
LWPOLYLINE
  5
7E
330
1F
100
AcDbEntity
  8
text2
100
AcDbPolyline
 90
        4
 70
     1
 43
0.0
 10
1889.0
 20
66.0
 10
1889.0
 20
161.0
 10
1984.0
 20
161.0
 10
1984.0
 20
66.0
  0
LWPOLYLINE
  5
7F
330
1F
100
AcDbEntity
  8
text2
100
AcDbPolyline
 90
        4
 70
     1
 43
0.0
 10
2039.0
 20
66.0
 10
2039.0
 20
161.0
 10
2134.0
 20
161.0
 10
2134.0
 20
66.0
  0
LWPOLYLINE
  5
80
330
1F
100
AcDbEntity
  8
text2
100
AcDbPolyline
 90
        4
 70
     1
 43
0.0
 10
339.0
 20
66.0
 10
339.0
 20
161.0
 10
1234.0
 20
161.0
 10
1234.0
 20
66.0
  0
LWPOLYLINE
  5
81
330
1F
100
AcDbEntity
  8
text2
100
AcDbPolyline
 90
       74
 70
     1
 43
0.0
 10
2900.016
 20
154.326
 10
2900.416
 20
151.126
 10
2900.416
 20
145.526
 10
2898.416
 20
139.126
 10
2895.216
 20
133.126
 10
2890.816
 20
127.526
 10
2885.216
 20
122.326
 10
2878.416
 20
117.126
 10
2870.416
 20
113.126
 10
2861.616
 20
109.126
 10
2852.016
 20
105.926
 10
2841.616
 20
103.526
 10
2830.816
 20
101.926
 10
2819.216
 20
100.726
 10
2809.216
 20
100.726
 10
2802.816
 20
101.126
 10
2796.416
 20
101.526
 10
2790.016
 20
101.926
 10
2784.016
 20
103.126
 10
2778.016
 20
104.326
 10
2772.016
 20
105.526
 10
2766.416
 20
107.126
 10
2761.216
 20
108.726
 10
2756.016
 20
110.726
 10
2751.216
 20
112.726
 10
2746.416
 20
115.126
 10
2742.416
 20
117.126
 10
2746.416
 20
115.526
 10
2750.016
 20
113.926
 10
2754.016
 20
112.326
 10
2758.416
 20
110.726
 10
2762.416
 20
109.526
 10
2766.816
 20
108.726
 10
2771.616
 20
107.526
 10
2776.016
 20
106.726
 10
2780.816
 20
106.326
 10
2786.016
 20
105.926
 10
2791.216
 20
105.526
 10
2806.416
 20
105.526
 10
2818.016
 20
106.726
 10
2828.816
 20
108.326
 10
2839.216
 20
110.726
 10
2848.816
 20
113.926
 10
2857.616
 20
117.926
 10
2865.616
 20
121.926
 10
2872.416
 20
126.726
 10
2878.016
 20
132.326
 10
2882.416
 20
137.926
 10
2885.616
 20
143.926
 10
2887.616
 20
150.326
 10
2888.016
 20
155.526
 10
2887.616
 20
158.726
 10
2887.216
 20
161.526
 10
2886.816
 20
164.326
 10
2886.016
 20
167.126
 10
2884.816
 20
169.926
 10
2883.216
 20
172.726
 10
2881.616
 20
175.126
 10
2879.616
 20
177.526
 10
2877.616
 20
179.926
 10
2874.816
 20
182.326
 10
2872.016
 20
184.326
 10
2868.816
 20
186.726
 10
2872.816
 20
184.326
 10
2877.216
 20
181.926
 10
2880.816
 20
179.526
 10
2884.416
 20
176.726
 10
2888.016
 20
173.926
 10
2890.816
 20
170.726
 10
2893.616
 20
167.526
 10
2896.016
 20
164.726
 10
2897.616
 20
161.126
 10
2899.216
 20
157.926
 10
2900.016
 20
154.326
  0
LWPOLYLINE
  5
82
330
1F
100
AcDbEntity
  8
text2
100
AcDbPolyline
 90
      278
 70
     1
 43
0.0
 10
2832.816
 20
126.726
 10
2834.416
 20
127.926
 10
2836.016
 20
129.526
 10
2837.616
 20
130.726
 10
2838.816
 20
131.926
 10
2839.616
 20
133.526
 10
2840.416
 20
134.726
 10
2842.016
 20
137.926
 10
2842.416
 20
139.126
 10
2842.416
 20
140.726
 10
2842.816
 20
142.726
 10
2842.816
 20
144.326
 10
2842.416
 20
147.126
 10
2841.216
 20
150.726
 10
2839.216
 20
153.926
 10
2836.416
 20
157.126
 10
2833.216
 20
159.926
 10
2829.216
 20
162.326
 10
2828.416
 20
163.126
 10
2826.416
 20
160.726
 10
2824.016
 20
157.126
 10
2821.616
 20
153.126
 10
2819.616
 20
149.126
 10
2818.016
 20
145.126
 10
2816.816
 20
141.126
 10
2816.016
 20
137.126
 10
2815.616
 20
133.126
 10
2816.016
 20
129.526
 10
2816.416
 20
126.326
 10
2817.616
 20
123.126
 10
2818.016
 20
122.726
 10
2818.816
 20
122.726
 10
2824.416
 20
123.526
 10
2827.216
 20
124.326
 10
2829.616
 20
125.126
 10
2826.816
 20
123.926
 10
2823.616
 20
123.126
 10
2820.416
 20
121.926
 10
2818.416
 20
121.526
 10
2818.816
 20
120.726
 10
2821.216
 20
118.326
 10
2822.816
 20
117.126
 10
2824.416
 20
116.326
 10
2828.416
 20
114.726
 10
2832.416
 20
113.926
 10
2830.016
 20
113.926
 10
2827.216
 20
114.326
 10
2822.416
 20
115.926
 10
2820.016
 20
117.126
 10
2817.616
 20
117.926
 10
2815.616
 20
119.526
 10
2814.016
 20
120.726
 10
2813.216
 20
120.326
 10
2801.216
 20
119.126
 10
2793.216
 20
119.126
 10
2789.216
 20
119.526
 10
2784.816
 20
119.926
 10
2778.416
 20
121.126
 10
2771.216
 20
123.126
 10
2764.416
 20
125.526
 10
2758.016
 20
127.926
 10
2752.416
 20
131.126
 10
2747.216
 20
134.726
 10
2742.416
 20
138.326
 10
2738.816
 20
142.326
 10
2735.616
 20
146.726
 10
2733.616
 20
151.126
 10
2732.016
 20
155.526
 10
2731.616
 20
159.926
 10
2732.016
 20
163.926
 10
2732.816
 20
166.326
 10
2733.616
 20
168.326
 10
2734.816
 20
170.726
 10
2736.416
 20
172.726
 10
2740.416
 20
176.726
 10
2742.816
 20
178.326
 10
2745.216
 20
180.326
 10
2748.016
 20
181.926
 10
2753.616
 20
184.326
 10
2756.816
 20
185.526
 10
2752.016
 20
183.126
 10
2750.416
 20
181.926
 10
2748.416
 20
180.726
 10
2746.816
 20
179.526
 10
2743.216
 20
174.726
 10
2742.416
 20
173.126
 10
2741.616
 20
171.126
 10
2740.816
 20
167.126
 10
2740.416
 20
163.526
 10
2740.816
 20
159.126
 10
2742.016
 20
154.326
 10
2744.416
 20
150.326
 10
2747.616
 20
145.926
 10
2751.216
 20
141.926
 10
2756.016
 20
138.326
 10
2761.216
 20
134.726
 10
2766.816
 20
131.526
 10
2773.216
 20
128.726
 10
2780.016
 20
126.326
 10
2787.216
 20
124.726
 10
2793.616
 20
123.526
 10
2796.816
 20
123.126
 10
2800.416
 20
122.726
 10
2803.616
 20
122.326
 10
2812.016
 20
122.326
 10
2811.216
 20
122.726
 10
2807.216
 20
126.726
 10
2805.616
 20
129.126
 10
2802.816
 20
132.726
 10
2800.416
 20
137.526
 10
2800.016
 20
138.726
 10
2799.616
 20
139.126
 10
2798.816
 20
140.326
 10
2797.616
 20
141.526
 10
2796.816
 20
142.726
 10
2794.416
 20
144.326
 10
2793.216
 20
145.526
 10
2792.016
 20
145.926
 10
2789.616
 20
147.526
 10
2788.416
 20
147.926
 10
2786.816
 20
148.326
 10
2785.216
 20
148.326
 10
2783.616
 20
148.726
 10
2782.416
 20
148.726
 10
2780.816
 20
149.126
 10
2779.216
 20
148.726
 10
2777.616
 20
148.726
 10
2776.016
 20
148.326
 10
2774.816
 20
147.926
 10
2771.616
 20
147.126
 10
2770.416
 20
146.326
 10
2768.816
 20
145.526
 10
2767.216
 20
144.326
 10
2766.016
 20
143.526
 10
2768.816
 20
146.326
 10
2770.816
 20
147.526
 10
2772.416
 20
148.326
 10
2774.416
 20
149.526
 10
2776.016
 20
150.326
 10
2778.016
 20
151.126
 10
2779.616
 20
151.526
 10
2781.616
 20
152.326
 10
2783.216
 20
152.326
 10
2785.216
 20
152.726
 10
2787.216
 20
152.726
 10
2788.816
 20
152.326
 10
2790.816
 20
152.326
 10
2792.416
 20
151.526
 10
2794.416
 20
151.126
 10
2796.816
 20
149.926
 10
2796.416
 20
153.126
 10
2796.416
 20
158.726
 10
2796.816
 20
163.926
 10
2798.016
 20
169.126
 10
2798.416
 20
169.926
 10
2796.416
 20
169.926
 10
2790.816
 20
169.526
 10
2788.016
 20
169.126
 10
2785.216
 20
169.126
 10
2779.616
 20
168.326
 10
2777.216
 20
167.926
 10
2774.416
 20
167.126
 10
2772.016
 20
166.726
 10
2770.016
 20
165.926
 10
2767.616
 20
165.126
 10
2765.216
 20
163.926
 10
2763.216
 20
163.126
 10
2765.616
 20
164.726
 10
2768.416
 20
165.926
 10
2771.216
 20
167.526
 10
2774.016
 20
168.726
 10
2777.216
 20
169.526
 10
2780.416
 20
170.726
 10
2783.616
 20
171.526
 10
2787.216
 20
172.326
 10
2790.416
 20
173.126
 10
2797.616
 20
173.926
 10
2797.616
 20
175.126
 10
2796.816
 20
176.726
 10
2796.016
 20
177.926
 10
2795.216
 20
179.526
 10
2793.616
 20
181.926
 10
2790.016
 20
185.526
 10
2787.616
 20
187.126
 10
2786.016
 20
187.926
 10
2784.816
 20
188.326
 10
2783.216
 20
189.126
 10
2782.016
 20
189.526
 10
2780.416
 20
189.926
 10
2778.816
 20
189.926
 10
2777.216
 20
190.326
 10
2775.616
 20
190.326
 10
2774.016
 20
189.926
 10
2772.016
 20
189.926
 10
2770.416
 20
189.526
 10
2770.016
 20
189.526
 10
2772.416
 20
190.326
 10
2776.416
 20
191.126
 10
2784.416
 20
191.126
 10
2788.416
 20
190.326
 10
2790.016
 20
189.926
 10
2791.616
 20
189.126
 10
2793.616
 20
188.326
 10
2795.216
 20
187.126
 10
2796.416
 20
186.326
 10
2800.816
 20
181.926
 10
2801.616
 20
180.326
 10
2802.416
 20
179.526
 10
2804.816
 20
183.126
 10
2808.016
 20
187.526
 10
2811.616
 20
190.726
 10
2813.616
 20
192.326
 10
2816.016
 20
193.926
 10
2820.816
 20
196.326
 10
2828.016
 20
198.726
 10
2830.416
 20
199.126
 10
2838.016
 20
199.126
 10
2840.816
 20
198.726
 10
2838.416
 20
198.726
 10
2836.016
 20
198.326
 10
2834.016
 20
198.326
 10
2832.016
 20
197.526
 10
2830.016
 20
197.126
 10
2826.016
 20
195.526
 10
2824.416
 20
194.726
 10
2822.816
 20
193.526
 10
2821.616
 20
192.726
 10
2820.016
 20
191.526
 10
2816.416
 20
187.926
 10
2814.016
 20
184.726
 10
2810.016
 20
175.926
 10
2809.616
 20
173.926
 10
2815.216
 20
173.526
 10
2821.216
 20
172.326
 10
2826.416
 20
170.726
 10
2828.016
 20
170.326
 10
2830.416
 20
171.926
 10
2833.216
 20
173.526
 10
2835.216
 20
174.726
 10
2837.616
 20
175.526
 10
2840.016
 20
176.726
 10
2842.416
 20
177.526
 10
2844.816
 20
177.926
 10
2847.616
 20
178.726
 10
2852.416
 20
179.526
 10
2863.616
 20
179.526
 10
2865.616
 20
179.126
 10
2860.416
 20
179.126
 10
2858.416
 20
178.726
 10
2856.416
 20
178.726
 10
2854.816
 20
178.326
 10
2852.816
 20
177.526
 10
2850.816
 20
177.126
 10
2848.816
 20
176.326
 10
2846.816
 20
175.926
 10
2845.216
 20
175.126
 10
2843.216
 20
173.926
 10
2841.216
 20
173.126
 10
2839.216
 20
171.926
 10
2836.816
 20
170.326
 10
2833.616
 20
167.926
 10
2836.016
 20
166.726
 10
2839.616
 20
164.326
 10
2843.216
 20
161.526
 10
2845.616
 20
158.326
 10
2847.616
 20
155.126
 10
2848.816
 20
151.526
 10
2849.216
 20
148.326
 10
2849.216
 20
146.326
 10
2848.816
 20
144.326
 10
2847.216
 20
140.326
 10
2846.016
 20
138.726
 10
2842.816
 20
134.726
 10
2841.216
 20
133.126
 10
2839.216
 20
131.526
 10
2837.216
 20
129.526
 10
2835.216
 20
128.326
 10
2832.816
 20
126.726
  0
LWPOLYLINE
  5
83
330
1F
100
AcDbEntity
  8
text2
100
AcDbPolyline
 90
       11
 70
     1
 43
0.0
 10
2622.146
 20
84.32600000000001
 10
2622.146
 20
91.471
 10
2629.291
 20
91.471
 10
2629.291
 20
127.181
 10
2622.146
 20
127.181
 10
2629.291
 20
134.326
 10
2636.431
 20
134.326
 10
2636.431
 20
91.471
 10
2643.576
 20
91.471
 10
2643.576
 20
84.32600000000001
 10
2622.146
 20
84.32600000000001
  0
LWPOLYLINE
  5
84
330
1F
100
AcDbEntity
  8
text2
100
AcDbPolyline
 90
        9
 70
     1
 43
0.0
 10
2575.716
 20
95.041
 10
2575.716
 20
123.611
 10
2579.291
 20
127.181
 10
2586.431
 20
127.181
 10
2590.006
 20
123.611
 10
2590.006
 20
95.041
 10
2586.431
 20
91.471
 10
2579.291
 20
91.471
 10
2575.716
 20
95.041
  0
LWPOLYLINE
  5
85
330
1F
100
AcDbEntity
  8
text2
100
AcDbPolyline
 90
        9
 70
     1
 43
0.0
 10
2568.576
 20
91.471
 10
2568.576
 20
127.181
 10
2575.716
 20
134.326
 10
2590.006
 20
134.326
 10
2597.146
 20
127.181
 10
2597.146
 20
91.471
 10
2590.006
 20
84.32600000000001
 10
2575.716
 20
84.32600000000001
 10
2568.576
 20
91.471
  0
LWPOLYLINE
  5
86
330
1F
100
AcDbEntity
  8
text2
100
AcDbPolyline
 90
        9
 70
     1
 43
0.0
 10
2525.716
 20
95.041
 10
2525.716
 20
123.611
 10
2529.291
 20
127.181
 10
2536.431
 20
127.181
 10
2540.006
 20
123.611
 10
2540.006
 20
95.041
 10
2536.431
 20
91.471
 10
2529.291
 20
91.471
 10
2525.716
 20
95.041
  0
LWPOLYLINE
  5
87
330
1F
100
AcDbEntity
  8
text2
100
AcDbPolyline
 90
        9
 70
     1
 43
0.0
 10
2518.576
 20
91.471
 10
2518.576
 20
127.181
 10
2525.716
 20
134.326
 10
2540.006
 20
134.326
 10
2547.146
 20
127.181
 10
2547.146
 20
91.471
 10
2540.006
 20
84.32600000000001
 10
2525.716
 20
84.32600000000001
 10
2518.576
 20
91.471
  0
LWPOLYLINE
  5
88
330
1F
100
AcDbEntity
  8
text2
100
AcDbPolyline
 90
       21
 70
     1
 43
0.0
 10
2465.006
 20
91.471
 10
2465.006
 20
127.181
 10
2472.146
 20
134.326
 10
2493.576
 20
134.326
 10
2500.716
 20
127.181
 10
2500.716
 20
120.041
 10
2493.576
 20
120.041
 10
2493.576
 20
123.611
 10
2490.006
 20
127.181
 10
2475.716
 20
127.181
 10
2472.146
 20
123.611
 10
2472.146
 20
95.041
 10
2475.716
 20
91.471
 10
2490.006
 20
91.471
 10
2493.576
 20
95.041
 10
2493.576
 20
98.611
 10
2500.716
 20
98.611
 10
2500.716
 20
91.471
 10
2493.576
 20
84.32600000000001
 10
2472.146
 20
84.32600000000001
 10
2465.006
 20
91.471
  0
LWPOLYLINE
  5
89
330
1F
100
AcDbEntity
  8
text2
100
AcDbPolyline
 90
       25
 70
     1
 43
0.0
 10
2415.006
 20
91.471
 10
2422.146
 20
95.041
 10
2425.716
 20
91.471
 10
2440.006
 20
91.471
 10
2443.576
 20
95.041
 10
2443.576
 20
102.181
 10
2440.006
 20
105.756
 10
2422.146
 20
105.756
 10
2415.006
 20
112.896
 10
2415.006
 20
127.181
 10
2422.146
 20
134.326
 10
2443.576
 20
134.326
 10
2450.716
 20
127.181
 10
2443.576
 20
123.611
 10
2440.006
 20
127.181
 10
2425.716
 20
127.181
 10
2422.146
 20
123.611
 10
2422.146
 20
116.471
 10
2425.716
 20
112.896
 10
2443.576
 20
112.896
 10
2450.716
 20
105.756
 10
2450.716
 20
91.471
 10
2443.576
 20
84.32600000000001
 10
2422.146
 20
84.32600000000001
 10
2415.006
 20
91.471
  0
LWPOLYLINE
  5
8A
330
1F
100
AcDbEntity
  8
text2
100
AcDbPolyline
 90
        7
 70
     1
 43
0.0
 10
2372.146
 20
112.896
 10
2390.006
 20
112.896
 10
2393.576
 20
116.471
 10
2393.576
 20
123.611
 10
2390.006
 20
127.181
 10
2372.146
 20
127.181
 10
2372.146
 20
112.896
  0
LWPOLYLINE
  5
8B
330
1F
100
AcDbEntity
  8
text2
100
AcDbPolyline
 90
       13
 70
     1
 43
0.0
 10
2365.006
 20
84.32600000000001
 10
2365.006
 20
134.326
 10
2393.576
 20
134.326
 10
2400.716
 20
127.181
 10
2400.716
 20
112.896
 10
2393.576
 20
105.756
 10
2382.861
 20
105.756
 10
2400.716
 20
87.898
 10
2400.716
 20
84.32600000000001
 10
2393.576
 20
84.32600000000001
 10
2372.146
 20
105.756
 10
2372.146
 20
84.32600000000001
 10
2365.006
 20
84.32600000000001
  0
LWPOLYLINE
  5
8C
330
1F
100
AcDbEntity
  8
text2
100
AcDbPolyline
 90
        9
 70
     1
 43
0.0
 10
2336.431
 20
95.041
 10
2336.431
 20
102.181
 10
2332.861
 20
105.756
 10
2329.291
 20
105.756
 10
2325.716
 20
102.181
 10
2325.716
 20
95.041
 10
2329.291
 20
91.471
 10
2332.861
 20
91.471
 10
2336.431
 20
95.041
  0
LWPOLYLINE
  5
8D
330
1F
100
AcDbEntity
  8
text2
100
AcDbPolyline
 90
       18
 70
     1
 43
0.0
 10
2340.006
 20
84.32600000000001
 10
2340.006
 20
80.755
 10
2336.431
 20
77.181
 10
2318.576
 20
77.181
 10
2318.576
 20
70.041
 10
2340.006
 20
70.041
 10
2347.146
 20
77.181
 10
2347.146
 20
112.896
 10
2340.006
 20
112.896
 10
2340.006
 20
109.326
 10
2336.431
 20
112.896
 10
2325.716
 20
112.896
 10
2318.576
 20
105.756
 10
2318.576
 20
91.471
 10
2325.716
 20
84.32600000000001
 10
2336.431
 20
84.32600000000001
 10
2340.006
 20
87.898
 10
2340.006
 20
84.32600000000001
  0
LWPOLYLINE
  5
8E
330
1F
100
AcDbEntity
  8
text2
100
AcDbPolyline
 90
       11
 70
     1
 43
0.0
 10
550.456
 20
2869.07
 10
550.456
 20
2876.215
 10
557.601
 20
2876.215
 10
557.601
 20
2911.925
 10
550.456
 20
2911.925
 10
557.601
 20
2919.07
 10
564.741
 20
2919.07
 10
564.741
 20
2876.215
 10
571.886
 20
2876.215
 10
571.886
 20
2869.07
 10
550.456
 20
2869.07
  0
LWPOLYLINE
  5
8F
330
1F
100
AcDbEntity
  8
text2
100
AcDbPolyline
 90
        7
 70
     1
 43
0.0
 10
500.456
 20
2897.64
 10
518.316
 20
2897.64
 10
521.886
 20
2901.215
 10
521.886
 20
2908.355
 10
518.316
 20
2911.925
 10
500.456
 20
2911.925
 10
500.456
 20
2897.64
  0
LWPOLYLINE
  5
90
330
1F
100
AcDbEntity
  8
text2
100
AcDbPolyline
 90
        9
 70
     1
 43
0.0
 10
493.316
 20
2869.07
 10
493.316
 20
2919.07
 10
521.886
 20
2919.07
 10
529.0260000000001
 20
2911.925
 10
529.0260000000001
 20
2897.64
 10
521.886
 20
2890.5
 10
500.456
 20
2890.5
 10
500.456
 20
2869.07
 10
493.316
 20
2869.07
  0
LWPOLYLINE
  5
91
330
1F
100
AcDbEntity
  8
text2
100
AcDbPolyline
 90
       11
 70
     1
 43
0.0
 10
689.172
 20
2910.642
 10
689.172
 20
2935.642
 10
694.528
 20
2935.642
 10
703.457
 20
2915.999
 10
703.457
 20
2935.642
 10
707.028
 20
2935.642
 10
707.028
 20
2910.642
 10
701.672
 20
2910.642
 10
692.743
 20
2930.285
 10
692.743
 20
2910.642
 10
689.172
 20
2910.642
  0
LWPOLYLINE
  5
92
330
1F
100
AcDbEntity
  8
text2
100
AcDbPolyline
 90
       13
 70
     1
 43
0.0
 10
667.743
 20
2910.642
 10
667.743
 20
2914.215
 10
671.315
 20
2914.215
 10
671.315
 20
2932.07
 10
667.743
 20
2932.07
 10
667.743
 20
2935.642
 10
678.457
 20
2935.642
 10
678.457
 20
2932.07
 10
674.885
 20
2932.07
 10
674.885
 20
2914.215
 10
678.457
 20
2914.215
 10
678.457
 20
2910.642
 10
667.743
 20
2910.642
  0
LWPOLYLINE
  5
93
330
1F
100
AcDbEntity
  8
text2
100
AcDbPolyline
 90
        9
 70
     1
 43
0.0
 10
619.527
 20
2914.215
 10
626.673
 20
2914.215
 10
628.457
 20
2915.999
 10
628.457
 20
2930.285
 10
626.673
 20
2932.07
 10
619.527
 20
2932.07
 10
617.743
 20
2930.285
 10
617.743
 20
2915.999
 10
619.527
 20
2914.215
  0
LWPOLYLINE
  5
94
330
1F
100
AcDbEntity
  8
text2
100
AcDbPolyline
 90
        9
 70
     1
 43
0.0
 10
614.172
 20
2914.215
 10
614.172
 20
2932.07
 10
617.743
 20
2935.642
 10
628.457
 20
2935.642
 10
632.027
 20
2932.07
 10
632.027
 20
2914.215
 10
628.457
 20
2910.642
 10
617.743
 20
2910.642
 10
614.172
 20
2914.215
  0
LWPOLYLINE
  5
95
330
1F
100
AcDbEntity
  8
text2
100
AcDbPolyline
 90
        7
 70
     1
 43
0.0
 10
589.173
 20
2910.642
 10
589.173
 20
2935.642
 10
592.743
 20
2935.642
 10
592.743
 20
2914.215
 10
607.028
 20
2914.215
 10
607.028
 20
2910.642
 10
589.173
 20
2910.642
  0
LWPOLYLINE
  5
96
330
1F
100
AcDbEntity
  8
text2
100
AcDbPolyline
 90
       11
 70
     1
 43
0.0
 10
2878.311
 20
225.645
 10
2878.311
 20
232.79
 10
2885.456
 20
232.79
 10
2885.456
 20
268.5
 10
2878.311
 20
268.5
 10
2885.456
 20
275.645
 10
2892.596
 20
275.645
 10
2892.596
 20
232.79
 10
2899.741
 20
232.79
 10
2899.741
 20
225.645
 10
2878.311
 20
225.645
  0
LWPOLYLINE
  5
97
330
1F
100
AcDbEntity
  8
text2
100
AcDbPolyline
 90
        7
 70
     1
 43
0.0
 10
2828.311
 20
254.215
 10
2849.741
 20
254.215
 10
2849.741
 20
264.93
 10
2846.171
 20
268.5
 10
2831.881
 20
268.5
 10
2828.311
 20
264.93
 10
2828.311
 20
254.215
  0
LWPOLYLINE
  5
98
330
1F
100
AcDbEntity
  8
text2
100
AcDbPolyline
 90
       11
 70
     1
 43
0.0
 10
2821.171
 20
225.645
 10
2821.171
 20
268.5
 10
2828.311
 20
275.645
 10
2849.741
 20
275.645
 10
2856.881
 20
268.5
 10
2856.881
 20
225.645
 10
2849.741
 20
225.645
 10
2849.741
 20
247.075
 10
2828.311
 20
247.075
 10
2828.311
 20
225.645
 10
2821.171
 20
225.645
  0
LWPOLYLINE
  5
99
330
1F
100
AcDbEntity
  8
text2
100
AcDbPolyline
 90
        9
 70
     1
 43
0.0
 10
2843.145
 20
859.0
 10
2843.145
 20
909.0
 10
2871.715
 20
909.0
 10
2878.855
 20
901.855
 10
2878.855
 20
887.57
 10
2871.715
 20
880.4300000000001
 10
2850.285
 20
880.4300000000001
 10
2850.285
 20
859.0
 10
2843.145
 20
859.0
  0
LWPOLYLINE
  5
9A
330
1F
100
AcDbEntity
  8
text2
100
AcDbPolyline
 90
        7
 70
     1
 43
0.0
 10
2850.285
 20
887.57
 10
2868.145
 20
887.57
 10
2871.715
 20
891.145
 10
2871.715
 20
898.285
 10
2868.145
 20
901.855
 10
2850.285
 20
901.855
 10
2850.285
 20
887.57
  0
LWPOLYLINE
  5
9B
330
1F
100
AcDbEntity
  8
text2
100
AcDbPolyline
 90
       26
 70
     1
 43
0.0
 10
2893.145
 20
866.145
 10
2900.285
 20
869.715
 10
2903.855
 20
866.145
 10
2918.145
 20
866.145
 10
2921.715
 20
869.715
 10
2921.715
 20
873.285
 10
2914.57
 20
880.4300000000001
 10
2907.43
 20
880.4300000000001
 10
2907.43
 20
887.57
 10
2914.57
 20
887.57
 10
2921.715
 20
894.715
 10
2921.715
 20
898.285
 10
2918.145
 20
901.855
 10
2903.855
 20
901.855
 10
2900.285
 20
898.285
 10
2893.145
 20
901.855
 10
2900.285
 20
909.0
 10
2921.715
 20
909.0
 10
2928.855
 20
901.855
 10
2928.855
 20
891.145
 10
2921.715
 20
884.0
 10
2928.855
 20
876.855
 10
2928.855
 20
866.145
 10
2921.715
 20
859.0
 10
2900.285
 20
859.0
 10
2893.145
 20
866.145
  0
LWPOLYLINE
  5
9C
330
1F
100
AcDbEntity
  8
text2
100
AcDbPolyline
 90
        7
 70
     1
 43
0.0
 10
2813.11
 20
833.179
 10
2822.039
 20
833.179
 10
2823.824
 20
834.966
 10
2823.824
 20
838.537
 10
2822.039
 20
840.322
 10
2813.11
 20
840.322
 10
2813.11
 20
833.179
  0
LWPOLYLINE
  5
9D
330
1F
100
AcDbEntity
  8
text2
100
AcDbPolyline
 90
       13
 70
     1
 43
0.0
 10
2809.54
 20
818.894
 10
2809.54
 20
843.894
 10
2823.824
 20
843.894
 10
2827.395
 20
840.322
 10
2827.395
 20
833.179
 10
2823.824
 20
829.609
 10
2818.467
 20
829.609
 10
2827.395
 20
820.6800000000001
 10
2827.395
 20
818.894
 10
2823.824
 20
818.894
 10
2813.11
 20
829.609
 10
2813.11
 20
818.894
 10
2809.54
 20
818.894
  0
LWPOLYLINE
  5
9E
330
1F
100
AcDbEntity
  8
text2
100
AcDbPolyline
 90
       11
 70
     1
 43
0.0
 10
2834.539
 20
818.894
 10
2834.539
 20
843.894
 10
2850.609
 20
843.894
 10
2850.609
 20
840.322
 10
2838.11
 20
840.322
 10
2838.11
 20
833.179
 10
2845.252
 20
833.179
 10
2845.252
 20
829.609
 10
2838.11
 20
829.609
 10
2838.11
 20
818.894
 10
2834.539
 20
818.894
  0
LWPOLYLINE
  5
9F
330
1F
100
AcDbEntity
  8
text2
100
AcDbPolyline
 90
       13
 70
     1
 43
0.0
 10
2888.11
 20
818.894
 10
2888.11
 20
822.467
 10
2891.682
 20
822.467
 10
2891.682
 20
840.322
 10
2888.11
 20
840.322
 10
2888.11
 20
843.894
 10
2898.824
 20
843.894
 10
2898.824
 20
840.322
 10
2895.252
 20
840.322
 10
2895.252
 20
822.467
 10
2898.824
 20
822.467
 10
2898.824
 20
818.894
 10
2888.11
 20
818.894
  0
LWPOLYLINE
  5
A0
330
1F
100
AcDbEntity
  8
text2
100
AcDbPolyline
 90
       11
 70
     1
 43
0.0
 10
2909.539
 20
818.894
 10
2909.539
 20
843.894
 10
2914.895
 20
843.894
 10
2923.824
 20
824.251
 10
2923.824
 20
843.894
 10
2927.395
 20
843.894
 10
2927.395
 20
818.894
 10
2922.039
 20
818.894
 10
2913.11
 20
838.537
 10
2913.11
 20
818.894
 10
2909.539
 20
818.894
  0
LWPOLYLINE
  5
A1
330
1F
100
AcDbEntity
  8
text2
100
AcDbPolyline
 90
        4
 70
     1
 43
0.0
 10
1239.0
 20
2839.0
 10
1239.0
 20
2934.0
 10
1934.0
 20
2934.0
 10
1934.0
 20
2839.0
  0
LWPOLYLINE
  5
A2
330
1F
100
AcDbEntity
  8
text2
100
AcDbPolyline
 90
       11
 70
     1
 43
0.0
 10
1201.171
 20
2855.787
 10
1201.171
 20
2859.36
 10
1204.743
 20
2859.36
 10
1204.743
 20
2877.215
 10
1201.171
 20
2877.215
 10
1204.743
 20
2880.787
 10
1208.313
 20
2880.787
 10
1208.313
 20
2859.36
 10
1211.885
 20
2859.36
 10
1211.885
 20
2855.787
 10
1201.171
 20
2855.787
  0
LWPOLYLINE
  5
A3
330
1F
100
AcDbEntity
  8
text2
100
AcDbPolyline
 90
       16
 70
     1
 43
0.0
 10
1141.43
 20
2852.715
 10
1141.43
 20
2863.43
 10
1170.0
 20
2884.86
 10
1170.0
 20
2892.0
 10
1166.43
 20
2895.57
 10
1152.14
 20
2895.57
 10
1148.57
 20
2892.0
 10
1141.43
 20
2895.57
 10
1148.57
 20
2902.715
 10
1170.0
 20
2902.715
 10
1177.14
 20
2895.57
 10
1177.14
 20
2881.285
 10
1148.57
 20
2859.86
 10
1177.14
 20
2859.86
 10
1177.14
 20
2852.715
 10
1141.43
 20
2852.715
  0
LWPOLYLINE
  5
A4
330
1F
100
AcDbEntity
  8
text2
100
AcDbPolyline
 90
        7
 70
     1
 43
0.0
 10
1098.57
 20
2881.285
 10
1116.43
 20
2881.285
 10
1120.0
 20
2884.86
 10
1120.0
 20
2892.0
 10
1116.43
 20
2895.57
 10
1098.57
 20
2895.57
 10
1098.57
 20
2881.285
  0
LWPOLYLINE
  5
A5
330
1F
100
AcDbEntity
  8
text2
100
AcDbPolyline
 90
        9
 70
     1
 43
0.0
 10
1091.43
 20
2852.715
 10
1091.43
 20
2902.715
 10
1120.0
 20
2902.715
 10
1127.14
 20
2895.57
 10
1127.14
 20
2881.285
 10
1120.0
 20
2874.145
 10
1098.57
 20
2874.145
 10
1098.57
 20
2852.715
 10
1091.43
 20
2852.715
  0
LWPOLYLINE
  5
A6
330
1F
100
AcDbEntity
  8
text2
100
AcDbPolyline
 90
       27
 70
     1
 43
0.0
 10
356.5
 20
2822.8
 10
356.5
 20
2934.0
 10
473.9
 20
2934.0
 10
478.3
 20
2933.3
 10
483.0
 20
2930.9
 10
486.6
 20
2927.3
 10
489.0
 20
2922.6
 10
489.8
 20
2917.5
 10
489.0
 20
2912.4
 10
486.6
 20
2907.7
 10
483.0
 20
2904.1
 10
478.3
 20
2901.7
 10
473.9
 20
2901.0
 10
464.7
 20
2901.0
 10
464.7
 20
2832.1
 10
389.5
 20
2832.1
 10
389.5
 20
2822.8
 10
388.8
 20
2818.4
 10
386.4
 20
2813.7
 10
382.8
 20
2810.1
 10
378.1
 20
2807.7
 10
373.0
 20
2806.9
 10
367.9
 20
2807.7
 10
363.2
 20
2810.1
 10
359.6
 20
2813.7
 10
357.2
 20
2818.4
 10
356.5
 20
2822.8
  0
LWPOLYLINE
  5
A7
330
1F
100
AcDbEntity
  8
text2
100
AcDbPolyline
 90
        4
 70
     1
 43
0.0
 10
257.5
 20
2818.8
 10
257.5
 20
2934.0
 10
315.5
 20
2934.0
 10
315.5
 20
2818.8
  0
LWPOLYLINE
  5
A8
330
1F
100
AcDbEntity
  8
text2
100
AcDbPolyline
 90
       27
 70
     1
 43
0.0
 10
183.5
 20
2822.8
 10
183.5
 20
2832.1
 10
108.3
 20
2832.1
 10
108.3
 20
2901.0
 10
99.10000000000001
 20
2901.0
 10
94.7
 20
2901.7
 10
90.0
 20
2904.1
 10
86.4
 20
2907.7
 10
84.0
 20
2912.4
 10
83.2
 20
2917.5
 10
84.0
 20
2922.6
 10
86.4
 20
2927.3
 10
90.0
 20
2930.9
 10
94.7
 20
2933.3
 10
99.10000000000001
 20
2934.0
 10
216.5
 20
2934.0
 10
216.5
 20
2822.8
 10
215.8
 20
2818.4
 10
213.4
 20
2813.7
 10
209.8
 20
2810.1
 10
205.1
 20
2807.7
 10
200.0
 20
2806.9
 10
194.9
 20
2807.7
 10
190.2
 20
2810.1
 10
186.6
 20
2813.7
 10
184.2
 20
2818.4
 10
183.5
 20
2822.8
  0
LWPOLYLINE
  5
A9
330
1F
100
AcDbEntity
  8
text2
100
AcDbPolyline
 90
        9
 70
     1
 43
0.0
 10
144.0
 20
1475.9
 10
175.0
 20
1475.9
 10
175.0
 20
1427.9
 10
144.0
 20
1427.9
 10
144.0
 20
1412.9
 10
66.0
 20
1412.9
 10
66.0
 20
1490.9
 10
144.0
 20
1490.9
 10
144.0
 20
1475.9
  0
LWPOLYLINE
  5
AA
330
1F
100
AcDbEntity
  8
text2
100
AcDbPolyline
 90
        9
 70
     1
 43
0.0
 10
129.0
 20
1865.9
 10
144.0
 20
1865.9
 10
144.0
 20
1787.9
 10
66.0
 20
1787.9
 10
66.0
 20
1865.9
 10
81.0
 20
1865.9
 10
81.0
 20
1896.9
 10
129.0
 20
1896.9
 10
129.0
 20
1865.9
  0
LWPOLYLINE
  5
AB
330
1F
100
AcDbEntity
  8
text2
100
AcDbPolyline
 90
        9
 70
     1
 43
0.0
 10
81.0
 20
1006.9
 10
81.0
 20
1037.9
 10
66.0
 20
1037.9
 10
66.0
 20
1115.9
 10
144.0
 20
1115.9
 10
144.0
 20
1037.9
 10
129.0
 20
1037.9
 10
129.0
 20
1006.9
 10
81.0
 20
1006.9
  0
LWPOLYLINE
  5
AC
330
1F
100
AcDbEntity
  8
text2
100
AcDbPolyline
 90
        5
 70
     1
 43
0.0
 10
144.0
 20
1712.9
 10
144.0
 20
1662.9
 10
66.0
 20
1662.9
 10
66.0
 20
1740.9
 10
144.0
 20
1740.9
  0
LWPOLYLINE
  5
AD
330
1F
100
AcDbEntity
  8
text2
100
AcDbPolyline
 90
        5
 70
     1
 43
0.0
 10
144.0
 20
1587.9
 10
144.0
 20
1537.9
 10
66.0
 20
1537.9
 10
66.0
 20
1615.9
 10
144.0
 20
1615.9
  0
LWPOLYLINE
  5
AE
330
1F
100
AcDbEntity
  8
text2
100
AcDbPolyline
 90
        4
 70
     1
 43
0.0
 10
66.0
 20
1287.9
 10
66.0
 20
1365.9
 10
144.0
 20
1365.9
 10
144.0
 20
1287.9
  0
LWPOLYLINE
  5
AF
330
1F
100
AcDbEntity
  8
text2
100
AcDbPolyline
 90
        4
 70
     1
 43
0.0
 10
66.0
 20
1162.9
 10
66.0
 20
1240.9
 10
144.0
 20
1240.9
 10
144.0
 20
1162.9
  0
ENDSEC
  0
SECTION
  2
OBJECTS
  0
DICTIONARY
  5
C
330
0
100
AcDbDictionary
281
     1
  3
ACAD_GROUP
350
D
  3
ACAD_LAYOUT
350
1A
  3
ACAD_MLEADERSTYLE
350
B1
  3
ACAD_MLINESTYLE
350
17
  3
ACAD_PLOTSETTINGS
350
19
  3
ACAD_PLOTSTYLENAME
350
E
  3
ACAD_SCALELIST
350
3B
  3
ACAD_TABLESTYLE
350
B0
  3
ACAD_VISUALSTYLE
350
2A
  0
DICTIONARY
  5
D
102
{ACAD_REACTORS
330
C
102
}
330
C
100
AcDbDictionary
281
     1
  0
DICTIONARY
  5
1A
102
{ACAD_REACTORS
330
C
102
}
330
C
100
AcDbDictionary
281
     1
  3
Layout1
350
1E
  3
Layout2
350
26
  3
Model
350
22
  0
DICTIONARY
  5
B1
102
{ACAD_REACTORS
330
C
102
}
330
C
100
AcDbDictionary
281
     1
  0
DICTIONARY
  5
17
102
{ACAD_REACTORS
330
C
102
}
330
C
100
AcDbDictionary
281
     1
  3
Standard
350
18
  0
DICTIONARY
  5
19
102
{ACAD_REACTORS
330
C
102
}
330
C
100
AcDbDictionary
281
     1
  0
ACDBDICTIONARYWDFLT
  5
E
102
{ACAD_REACTORS
330
C
102
}
330
C
100
AcDbDictionary
281
     1
  3
Normal
350
F
100
AcDbDictionaryWithDefault
340
F
  0
DICTIONARY
  5
3B
102
{ACAD_REACTORS
330
C
102
}
330
C
100
AcDbDictionary
281
     1
  3
A0
350
3C
  3
A1
350
3D
  3
A2
350
3E
  3
A3
350
3F
  3
A4
350
40
  3
A5
350
41
  3
A6
350
42
  3
A7
350
43
  3
A8
350
44
  3
A9
350
45
  3
B0
350
46
  3
B1
350
47
  3
B2
350
48
  3
B3
350
49
  3
B4
350
4A
  3
B5
350
4B
  3
B6
350
4C
  3
B7
350
4D
  3
B8
350
4E
  3
B9
350
4F
  3
C0
350
50
  3
C1
350
51
  3
C2
350
52
  3
C3
350
53
  3
C4
350
54
  3
C5
350
55
  3
C6
350
56
  3
C7
350
57
  3
C8
350
58
  3
C9
350
59
  3
D0
350
5A
  3
D1
350
5B
  3
D2
350
5C
  0
DICTIONARY
  5
B0
102
{ACAD_REACTORS
330
C
102
}
330
C
100
AcDbDictionary
281
     1
  0
DICTIONARY
  5
2A
102
{ACAD_REACTORS
330
C
102
}
330
C
100
AcDbDictionary
281
     1
  3
2dWireframe
350
2F
  3
3D Hidden
350
31
  3
3dWireframe
350
30
  3
Basic
350
32
  3
Brighten
350
36
  3
ColorChange
350
3A
  3
Conceptual
350
34
  3
Dim
350
35
  3
Facepattern
350
39
  3
Flat
350
2B
  3
FlatWithEdges
350
2C
  3
Gouraud
350
2D
  3
GouraudWithEdges
350
2E
  3
Linepattern
350
38
  3
Realistic
350
33
  3
Thicken
350
37
  0
LAYOUT
  5
1E
102
{ACAD_REACTORS
330
1A
102
}
330
1A
100
AcDbPlotSettings
  1

  2
none_device
  4

  6

 40
0.0
 41
0.0
 42
0.0
 43
0.0
 44
0.0
 45
0.0
 46
0.0
 47
0.0
 48
0.0
 49
0.0
140
0.0
141
0.0
142
1.0
143
1.0
 70
   688
 72
     0
 73
     0
 74
     5
  7

 75
    16
 76
     0
 77
     2
 78
   300
147
1.0
148
0.0
149
0.0
100
AcDbLayout
  1
Layout1
 70
     1
 71
     1
 10
0.0
 20
0.0
 11
12.0
 21
9.0
 12
0.0
 22
0.0
 32
0.0
 14
1.000000000000000E+20
 24
1.000000000000000E+20
 34
1.000000000000000E+20
 15
-1.000000000000000E+20
 25
-1.000000000000000E+20
 35
-1.000000000000000E+20
146
0.0
 13
0.0
 23
0.0
 33
0.0
 16
1.0
 26
0.0
 36
0.0
 17
0.0
 27
1.0
 37
0.0
 76
     0
330
1B
  0
LAYOUT
  5
26
102
{ACAD_REACTORS
330
1A
102
}
330
1A
100
AcDbPlotSettings
  1

  2
none_device
  4

  6

 40
0.0
 41
0.0
 42
0.0
 43
0.0
 44
0.0
 45
0.0
 46
0.0
 47
0.0
 48
0.0
 49
0.0
140
0.0
141
0.0
142
1.0
143
1.0
 70
   688
 72
     0
 73
     0
 74
     5
  7

 75
    16
 76
     0
 77
     2
 78
   300
147
1.0
148
0.0
149
0.0
100
AcDbLayout
  1
Layout2
 70
     1
 71
     2
 10
0.0
 20
0.0
 11
0.0
 21
0.0
 12
0.0
 22
0.0
 32
0.0
 14
0.0
 24
0.0
 34
0.0
 15
0.0
 25
0.0
 35
0.0
146
0.0
 13
0.0
 23
0.0
 33
0.0
 16
1.0
 26
0.0
 36
0.0
 17
0.0
 27
1.0
 37
0.0
 76
     0
330
23
  0
LAYOUT
  5
22
102
{ACAD_REACTORS
330
1A
102
}
330
1A
100
AcDbPlotSettings
  1

  2
none_device
  4

  6

 40
0.0
 41
0.0
 42
0.0
 43
0.0
 44
0.0
 45
0.0
 46
0.0
 47
0.0
 48
0.0
 49
0.0
140
0.0
141
0.0
142
1.0
143
1.0
 70
  1712
 72
     0
 73
     0
 74
     0
  7

 75
     0
 76
     0
 77
     2
 78
   300
147
1.0
148
0.0
149
0.0
100
AcDbLayout
  1
Model
 70
     1
 71
     0
 10
0.0
 20
0.0
 11
12.0
 21
9.0
 12
0.0
 22
0.0
 32
0.0
 14
1.000000000000000E+20
 24
1.000000000000000E+20
 34
1.000000000000000E+20
 15
-1.000000000000000E+20
 25
-1.000000000000000E+20
 35
-1.000000000000000E+20
146
0.0
 13
0.0
 23
0.0
 33
0.0
 16
1.0
 26
0.0
 36
0.0
 17
0.0
 27
1.0
 37
0.0
 76
     0
330
1F
331
29
  0
MLINESTYLE
  5
18
102
{ACAD_REACTORS
330
17
102
}
330
17
100
AcDbMlineStyle
  2
Standard
 70
     0
  3

 62
   256
 51
90.0
 52
90.0
 71
     2
 49
0.5
 62
   256
  6
BYLAYER
 49
-0.5
 62
   256
  6
BYLAYER
  0
ACDBPLACEHOLDER
  5
F
102
{ACAD_REACTORS
330
E
102
}
330
E
  0
SCALE
  5
3C
102
{ACAD_REACTORS
330
3B
102
}
330
3B
100
AcDbScale
 70
     0
300
1:1
140
1.0
141
1.0
290
     1
  0
SCALE
  5
3D
102
{ACAD_REACTORS
330
3B
102
}
330
3B
100
AcDbScale
 70
     0
300
1:2
140
1.0
141
2.0
290
     0
  0
SCALE
  5
3E
102
{ACAD_REACTORS
330
3B
102
}
330
3B
100
AcDbScale
 70
     0
300
1:4
140
1.0
141
4.0
290
     0
  0
SCALE
  5
3F
102
{ACAD_REACTORS
330
3B
102
}
330
3B
100
AcDbScale
 70
     0
300
1:5
140
1.0
141
5.0
290
     0
  0
SCALE
  5
40
102
{ACAD_REACTORS
330
3B
102
}
330
3B
100
AcDbScale
 70
     0
300
1:8
140
1.0
141
8.0
290
     0
  0
SCALE
  5
41
102
{ACAD_REACTORS
330
3B
102
}
330
3B
100
AcDbScale
 70
     0
300
1:10
140
1.0
141
10.0
290
     0
  0
SCALE
  5
42
102
{ACAD_REACTORS
330
3B
102
}
330
3B
100
AcDbScale
 70
     0
300
1:16
140
1.0
141
16.0
290
     0
  0
SCALE
  5
43
102
{ACAD_REACTORS
330
3B
102
}
330
3B
100
AcDbScale
 70
     0
300
1:20
140
1.0
141
20.0
290
     0
  0
SCALE
  5
44
102
{ACAD_REACTORS
330
3B
102
}
330
3B
100
AcDbScale
 70
     0
300
1:30
140
1.0
141
30.0
290
     0
  0
SCALE
  5
45
102
{ACAD_REACTORS
330
3B
102
}
330
3B
100
AcDbScale
 70
     0
300
1:40
140
1.0
141
40.0
290
     0
  0
SCALE
  5
46
102
{ACAD_REACTORS
330
3B
102
}
330
3B
100
AcDbScale
 70
     0
300
1:50
140
1.0
141
50.0
290
     0
  0
SCALE
  5
47
102
{ACAD_REACTORS
330
3B
102
}
330
3B
100
AcDbScale
 70
     0
300
1:100
140
1.0
141
100.0
290
     0
  0
SCALE
  5
48
102
{ACAD_REACTORS
330
3B
102
}
330
3B
100
AcDbScale
 70
     0
300
2:1
140
2.0
141
1.0
290
     0
  0
SCALE
  5
49
102
{ACAD_REACTORS
330
3B
102
}
330
3B
100
AcDbScale
 70
     0
300
4:1
140
4.0
141
1.0
290
     0
  0
SCALE
  5
4A
102
{ACAD_REACTORS
330
3B
102
}
330
3B
100
AcDbScale
 70
     0
300
8:1
140
8.0
141
1.0
290
     0
  0
SCALE
  5
4B
102
{ACAD_REACTORS
330
3B
102
}
330
3B
100
AcDbScale
 70
     0
300
10:1
140
10.0
141
1.0
290
     0
  0
SCALE
  5
4C
102
{ACAD_REACTORS
330
3B
102
}
330
3B
100
AcDbScale
 70
     0
300
100:1
140
100.0
141
1.0
290
     0
  0
SCALE
  5
4D
102
{ACAD_REACTORS
330
3B
102
}
330
3B
100
AcDbScale
 70
     0
300
1/128" = 1'-0"
140
0.0078125
141
12.0
290
     0
  0
SCALE
  5
4E
102
{ACAD_REACTORS
330
3B
102
}
330
3B
100
AcDbScale
 70
     0
300
1/64" = 1'-0"
140
0.015625
141
12.0
290
     0
  0
SCALE
  5
4F
102
{ACAD_REACTORS
330
3B
102
}
330
3B
100
AcDbScale
 70
     0
300
1/32" = 1'-0"
140
0.03125
141
12.0
290
     0
  0
SCALE
  5
50
102
{ACAD_REACTORS
330
3B
102
}
330
3B
100
AcDbScale
 70
     0
300
1/16" = 1'-0"
140
0.0625
141
12.0
290
     0
  0
SCALE
  5
51
102
{ACAD_REACTORS
330
3B
102
}
330
3B
100
AcDbScale
 70
     0
300
3/32" = 1'-0"
140
0.09375
141
12.0
290
     0
  0
SCALE
  5
52
102
{ACAD_REACTORS
330
3B
102
}
330
3B
100
AcDbScale
 70
     0
300
1/8" = 1'-0"
140
0.125
141
12.0
290
     0
  0
SCALE
  5
53
102
{ACAD_REACTORS
330
3B
102
}
330
3B
100
AcDbScale
 70
     0
300
3/16" = 1'-0"
140
0.1875
141
12.0
290
     0
  0
SCALE
  5
54
102
{ACAD_REACTORS
330
3B
102
}
330
3B
100
AcDbScale
 70
     0
300
1/4" = 1'-0"
140
0.25
141
12.0
290
     0
  0
SCALE
  5
55
102
{ACAD_REACTORS
330
3B
102
}
330
3B
100
AcDbScale
 70
     0
300
3/8" = 1'-0"
140
0.375
141
12.0
290
     0
  0
SCALE
  5
56
102
{ACAD_REACTORS
330
3B
102
}
330
3B
100
AcDbScale
 70
     0
300
1/2" = 1'-0"
140
0.5
141
12.0
290
     0
  0
SCALE
  5
57
102
{ACAD_REACTORS
330
3B
102
}
330
3B
100
AcDbScale
 70
     0
300
3/4" = 1'-0"
140
0.75
141
12.0
290
     0
  0
SCALE
  5
58
102
{ACAD_REACTORS
330
3B
102
}
330
3B
100
AcDbScale
 70
     0
300
1" = 1'-0"
140
1.0
141
12.0
290
     0
  0
SCALE
  5
59
102
{ACAD_REACTORS
330
3B
102
}
330
3B
100
AcDbScale
 70
     0
300
1-1/2" = 1'-0"
140
1.5
141
12.0
290
     0
  0
SCALE
  5
5A
102
{ACAD_REACTORS
330
3B
102
}
330
3B
100
AcDbScale
 70
     0
300
3" = 1'-0"
140
3.0
141
12.0
290
     0
  0
SCALE
  5
5B
102
{ACAD_REACTORS
330
3B
102
}
330
3B
100
AcDbScale
 70
     0
300
6" = 1'-0"
140
6.0
141
12.0
290
     0
  0
SCALE
  5
5C
102
{ACAD_REACTORS
330
3B
102
}
330
3B
100
AcDbScale
 70
     0
300
1'-0" = 1'-0"
140
12.0
141
12.0
290
     0
  0
VISUALSTYLE
  5
2F
102
{ACAD_REACTORS
330
2A
102
}
330
2A
100
AcDbVisualStyle
  2
2dWireframe
 70
     4
 71
     0
 72
     2
 73
     0
 90
        0
 40
-0.6
 41
-30.0
 62
     5
 63
     7
421
 16777215
 74
     1
 91
        4
 64
     7
 65
   257
 75
     1
175
     1
 42
1.0
 92
        0
 66
   257
 43
1.0
 76
     1
 77
     6
 78
     2
 67
     7
 79
     5
170
     0
171
     0
290
     0
174
     0
 93
        1
 44
0.0
173
     0
291
     0
 45
0.0
1001
ACAD
1000
AcDbSavedByObjectVersion
1070
     0
  0
VISUALSTYLE
  5
31
102
{ACAD_REACTORS
330
2A
102
}
330
2A
100
AcDbVisualStyle
  2
3D Hidden
 70
     6
 71
     1
 72
     2
 73
     2
 90
        0
 40
-0.6
 41
-30.0
 62
     5
 63
     7
421
 16777215
 74
     2
 91
        2
 64
     7
 65
   257
 75
     2
175
     1
 42
40.0
 92
        0
 66
   257
 43
1.0
 76
     1
 77
     6
 78
     2
 67
     7
 79
     3
170
     0
171
     0
290
     0
174
     0
 93
        1
 44
0.0
173
     0
291
     0
 45
0.0
1001
ACAD
1000
AcDbSavedByObjectVersion
1070
     0
  0
VISUALSTYLE
  5
30
102
{ACAD_REACTORS
330
2A
102
}
330
2A
100
AcDbVisualStyle
  2
3dWireframe
 70
     5
 71
     0
 72
     2
 73
     0
 90
        0
 40
-0.6
 41
-30.0
 62
     5
 63
     7
421
 16777215
 74
     1
 91
        4
 64
     7
 65
   257
 75
     1
175
     1
 42
1.0
 92
        0
 66
   257
 43
1.0
 76
     1
 77
     6
 78
     2
 67
     7
 79
     5
170
     0
171
     0
290
     0
174
     0
 93
        1
 44
0.0
173
     0
291
     0
 45
0.0
1001
ACAD
1000
AcDbSavedByObjectVersion
1070
     0
  0
VISUALSTYLE
  5
32
102
{ACAD_REACTORS
330
2A
102
}
330
2A
100
AcDbVisualStyle
  2
Basic
 70
     7
 71
     1
 72
     0
 73
     1
 90
        0
 40
-0.6
 41
-30.0
 62
     5
 63
     7
421
 16777215
 74
     0
 91
        4
 64
     7
 65
   257
 75
     1
175
     1
 42
1.0
 92
        8
 66
     7
 43
1.0
 76
     1
 77
     6
 78
     2
 67
     7
 79
     5
170
     0
171
     0
290
     0
174
     0
 93
        1
 44
0.0
173
     0
291
     1
 45
0.0
1001
ACAD
1000
AcDbSavedByObjectVersion
1070
     0
  0
VISUALSTYLE
  5
36
102
{ACAD_REACTORS
330
2A
102
}
330
2A
100
AcDbVisualStyle
  2
Brighten
 70
    12
 71
     2
 72
     2
 73
     0
 90
        0
 40
-0.6
 41
-30.0
 62
     5
 63
     7
421
 16777215
 74
     1
 91
        4
 64
     7
 65
   257
 75
     1
175
     1
 42
1.0
 92
        8
 66
     7
 43
1.0
 76
     1
 77
     6
 78
     2
 67
     7
 79
     5
170
     0
171
     0
290
     0
174
     0
 93
        1
 44
50.0
173
     0
291
     1
 45
0.0
1001
ACAD
1000
AcDbSavedByObjectVersion
1070
     0
  0
VISUALSTYLE
  5
3A
102
{ACAD_REACTORS
330
2A
102
}
330
2A
100
AcDbVisualStyle
  2
ColorChange
 70
    16
 71
     2
 72
     2
 73
     3
 90
        0
 40
-0.6
 41
-30.0
 62
     5
 63
     8
421
  8421504
 74
     1
 91
        4
 64
     7
 65
   257
 75
     1
175
     1
 42
1.0
 92
        8
 66
     8
424
  8421504
 43
1.0
 76
     1
 77
     6
 78
     2
 67
     7
 79
     5
170
     0
171
     0
290
     0
174
     0
 93
        1
 44
0.0
173
     0
291
     1
 45
0.0
1001
ACAD
1000
AcDbSavedByObjectVersion
1070
     0
  0
VISUALSTYLE
  5
34
102
{ACAD_REACTORS
330
2A
102
}
330
2A
100
AcDbVisualStyle
  2
Conceptual
 70
     9
 71
     3
 72
     2
 73
     0
 90
        0
 40
-0.6
 41
-30.0
 62
     5
 63
     7
421
 16777215
 74
     2
 91
        2
 64
     7
 65
   257
 75
     1
175
     1
 42
40.0
 92
        8
 66
     7
 43
1.0
 76
     1
 77
     6
 78
     2
 67
     7
 79
     3
170
     0
171
     0
290
     0
174
     0
 93
        1
 44
0.0
173
     0
291
     0
 45
0.0
1001
ACAD
1000
AcDbSavedByObjectVersion
1070
     0
  0
VISUALSTYLE
  5
35
102
{ACAD_REACTORS
330
2A
102
}
330
2A
100
AcDbVisualStyle
  2
Dim
 70
    11
 71
     2
 72
     2
 73
     0
 90
        0
 40
-0.6
 41
-30.0
 62
     5
 63
     7
421
 16777215
 74
     1
 91
        4
 64
     7
 65
   257
 75
     1
175
     1
 42
1.0
 92
        8
 66
     7
 43
1.0
 76
     1
 77
     6
 78
     2
 67
     7
 79
     5
170
     0
171
     0
290
     0
174
     0
 93
        1
 44
-50.0
173
     0
291
     1
 45
0.0
1001
ACAD
1000
AcDbSavedByObjectVersion
1070
     0
  0
VISUALSTYLE
  5
39
102
{ACAD_REACTORS
330
2A
102
}
330
2A
100
AcDbVisualStyle
  2
Facepattern
 70
    15
 71
     2
 72
     2
 73
     0
 90
        0
 40
-0.6
 41
-30.0
 62
     5
 63
     7
421
 16777215
 74
     1
 91
        4
 64
     7
 65
   257
 75
     1
175
     1
 42
1.0
 92
        8
 66
     7
 43
1.0
 76
     1
 77
     6
 78
     2
 67
     7
 79
     5
170
     0
171
     0
290
     0
174
     0
 93
        1
 44
0.0
173
     0
291
     1
 45
0.0
1001
ACAD
1000
AcDbSavedByObjectVersion
1070
     0
  0
VISUALSTYLE
  5
2B
102
{ACAD_REACTORS
330
2A
102
}
330
2A
100
AcDbVisualStyle
  2
Flat
 70
     0
 71
     2
 72
     1
 73
     1
 90
        2
 40
-0.6
 41
30.0
 62
     5
 63
     7
421
 16777215
 74
     0
 91
        4
 64
     7
 65
   257
 75
     1
175
     1
 42
1.0
 92
        8
 66
     7
 43
1.0
 76
     1
 77
     6
 78
     2
 67
     7
 79
     5
170
     0
171
     0
290
     0
174
     0
 93
       13
 44
0.0
173
     0
291
     1
 45
0.0
1001
ACAD
1000
AcDbSavedByObjectVersion
1070
     0
  0
VISUALSTYLE
  5
2C
102
{ACAD_REACTORS
330
2A
102
}
330
2A
100
AcDbVisualStyle
  2
FlatWithEdges
 70
     1
 71
     2
 72
     1
 73
     1
 90
        2
 40
-0.6
 41
30.0
 62
     5
 63
     7
421
 16777215
 74
     1
 91
        4
 64
     7
 65
   257
 75
     1
175
     1
 42
1.0
 92
        0
 66
   257
 43
1.0
 76
     1
 77
     6
 78
     2
 67
     7
 79
     5
170
     0
171
     0
290
     0
174
     0
 93
       13
 44
0.0
173
     0
291
     1
 45
0.0
1001
ACAD
1000
AcDbSavedByObjectVersion
1070
     0
  0
VISUALSTYLE
  5
2D
102
{ACAD_REACTORS
330
2A
102
}
330
2A
100
AcDbVisualStyle
  2
Gouraud
 70
     2
 71
     2
 72
     2
 73
     1
 90
        2
 40
-0.6
 41
30.0
 62
     5
 63
     7
421
 16777215
 74
     0
 91
        4
 64
     7
 65
   257
 75
     1
175
     1
 42
1.0
 92
        0
 66
     7
 43
1.0
 76
     1
 77
     6
 78
     2
 67
     7
 79
     5
170
     0
171
     0
290
     0
174
     0
 93
       13
 44
0.0
173
     0
291
     1
 45
0.0
1001
ACAD
1000
AcDbSavedByObjectVersion
1070
     0
  0
VISUALSTYLE
  5
2E
102
{ACAD_REACTORS
330
2A
102
}
330
2A
100
AcDbVisualStyle
  2
GouraudWithEdges
 70
     3
 71
     2
 72
     2
 73
     1
 90
        2
 40
-0.6
 41
30.0
 62
     5
 63
     7
421
 16777215
 74
     1
 91
        4
 64
     7
 65
   257
 75
     1
175
     1
 42
1.0
 92
        0
 66
   257
 43
1.0
 76
     1
 77
     6
 78
     2
 67
     7
 79
     5
170
     0
171
     0
290
     0
174
     0
 93
       13
 44
0.0
173
     0
291
     1
 45
0.0
1001
ACAD
1000
AcDbSavedByObjectVersion
1070
     0
  0
VISUALSTYLE
  5
38
102
{ACAD_REACTORS
330
2A
102
}
330
2A
100
AcDbVisualStyle
  2
Linepattern
 70
    14
 71
     2
 72
     2
 73
     0
 90
        0
 40
-0.6
 41
-30.0
 62
     5
 63
     7
421
 16777215
 74
     1
 91
        4
 64
     7
 65
   257
 75
     7
175
     7
 42
1.0
 92
        8
 66
     7
 43
1.0
 76
     1
 77
     6
 78
     2
 67
     7
 79
     5
170
     0
171
     0
290
     0
174
     0
 93
        1
 44
0.0
173
     0
291
     1
 45
0.0
1001
ACAD
1000
AcDbSavedByObjectVersion
1070
     0
  0
VISUALSTYLE
  5
33
102
{ACAD_REACTORS
330
2A
102
}
330
2A
100
AcDbVisualStyle
  2
Realistic
 70
     8
 71
     2
 72
     2
 73
     0
 90
        0
 40
-0.6
 41
-30.0
 62
     5
 63
     7
421
 16777215
 74
     1
 91
        0
 64
     7
 65
   257
 75
     1
175
     1
 42
1.0
 92
        8
 66
     8
424
  7895160
 43
1.0
 76
     1
 77
     6
 78
     2
 67
     7
 79
     5
170
     0
171
     0
290
     0
174
     0
 93
       13
 44
0.0
173
     0
291
     0
 45
0.0
1001
ACAD
1000
AcDbSavedByObjectVersion
1070
     0
  0
VISUALSTYLE
  5
37
102
{ACAD_REACTORS
330
2A
102
}
330
2A
100
AcDbVisualStyle
  2
Thicken
 70
    13
 71
     2
 72
     2
 73
     0
 90
        0
 40
-0.6
 41
-30.0
 62
     5
 63
     7
421
 16777215
 74
     1
 91
        4
 64
     7
 65
   257
 75
     1
175
     1
 42
1.0
 92
       12
 66
     7
 43
1.0
 76
     1
 77
     6
 78
     2
 67
     7
 79
     5
170
     0
171
     0
290
     0
174
     0
 93
        1
 44
0.0
173
     0
291
     1
 45
0.0
1001
ACAD
1000
AcDbSavedByObjectVersion
1070
     0
  0
ENDSEC
  0
EOF
